ISO-10303-21;
HEADER;
FILE_DESCRIPTION (( 'STEP AP203' ),
    '1' );
FILE_NAME ('997936.step',
    '2021-11-18T08:56:54',
    ( '' ),
    ( '' ),
    'SwSTEP 2.0',
    'SolidWorks 2019',
    '' );
FILE_SCHEMA (( 'CONFIG_CONTROL_DESIGN' ));
ENDSEC;

DATA;
#1 = ADVANCED_FACE ( 'NONE', ( #27, #9 ), #53, .T. ) ;
#2 = PERSON_AND_ORGANIZATION ( #204, #180 ) ;
#3 = DIRECTION ( 'NONE',  ( -4.275831445896958607E-31, -1.000000000000000000, -1.224646799147353207E-16 ) ) ;
#4 = AXIS2_PLACEMENT_3D ( 'NONE', #205, #36, #196 ) ;
#5 = CYLINDRICAL_SURFACE ( 'NONE', #189, 0.9999999999999906741 ) ;
#6 = FACE_OUTER_BOUND ( 'NONE', #51, .T. ) ;
#7 = APPROVAL_ROLE ( '' ) ;
#8 = CARTESIAN_POINT ( 'NONE',  ( 1.326762908760390423E-13, -4.653657836759941941E-15, 38.00000000000000000 ) ) ;
#9 = FACE_OUTER_BOUND ( 'NONE', #106, .T. ) ;
#10 = CALENDAR_DATE ( 2021, 18, 11 ) ;
#11 = AXIS2_PLACEMENT_3D ( 'NONE', #38, #20, #133 ) ;
#12 = ORIENTED_EDGE ( 'NONE', *, *, #195, .F. ) ;
#13 = PERSON_AND_ORGANIZATION ( #204, #180 ) ;
#14 = ORIENTED_EDGE ( 'NONE', *, *, #200, .T. ) ;
#15 = APPROVAL_STATUS ( 'not_yet_approved' ) ;
#16 = CARTESIAN_POINT ( 'NONE',  ( 1.396592535537253342E-14, 1.124819836996391564E-32, 4.000000000000000000 ) ) ;
#17 = VERTEX_POINT ( 'NONE', #77 ) ;
#18 = EDGE_LOOP ( 'NONE', ( #76 ) ) ;
#19 = COORDINATED_UNIVERSAL_TIME_OFFSET ( 1, 0, .AHEAD. ) ;
#20 = DIRECTION ( 'NONE',  ( -3.491481338843133355E-15, 1.224646799147353207E-16, -1.000000000000000000 ) ) ;
#21 = CC_DESIGN_PERSON_AND_ORGANIZATION_ASSIGNMENT ( #164, #165, ( #59 ) ) ;
#22 = CC_DESIGN_APPROVAL ( #131, ( #243 ) ) ;
#23 = DIRECTION ( 'NONE',  ( 0.0000000000000000000, -1.000000000000000000, 0.0000000000000000000 ) ) ;
#24 = CC_DESIGN_PERSON_AND_ORGANIZATION_ASSIGNMENT ( #100, #226, ( #243 ) ) ;
#25 = LOCAL_TIME ( 9, 56, 54.00000000000000000, #79 ) ;
#26 = MECHANICAL_CONTEXT ( 'NONE', #47, 'mechanical' ) ;
#27 = FACE_OUTER_BOUND ( 'NONE', #50, .T. ) ;
#28 = ADVANCED_FACE ( 'NONE', ( #112 ), #184, .T. ) ;
#29 = DATE_AND_TIME ( #91, #138 ) ;
#30 = COORDINATED_UNIVERSAL_TIME_OFFSET ( 1, 0, .AHEAD. ) ;
#31 = TOROIDAL_SURFACE ( 'NONE', #192, 0.4999999999999995559, 0.5000000000000002220 ) ;
#32 = APPLICATION_PROTOCOL_DEFINITION ( 'international standard', 'config_control_design', 1994, #47 ) ;
#33 = DIRECTION ( 'NONE',  ( 4.275831445896958607E-31, 1.000000000000000000, 1.224646799147353207E-16 ) ) ;
#34 = CARTESIAN_POINT ( 'NONE',  ( 1.396592535537253342E-14, -0.9999999999999913403, 4.000000000000000000 ) ) ;
#35 = ORIENTED_EDGE ( 'NONE', *, *, #209, .F. ) ;
#36 = DIRECTION ( 'NONE',  ( -3.491481338843133355E-15, 1.224646799147353207E-16, -1.000000000000000000 ) ) ;
#37 = DATE_AND_TIME ( #135, #227 ) ;
#38 = CARTESIAN_POINT ( 'NONE',  ( 1.316288464743861212E-13, -4.616918432785521081E-15, 37.69999999999999574 ) ) ;
#39 = AXIS2_PLACEMENT_3D ( 'NONE', #143, #201, #33 ) ;
#40 = DIRECTION ( 'NONE',  ( 0.0000000000000000000, 1.000000000000000000, 0.0000000000000000000 ) ) ;
#41 =( GEOMETRIC_REPRESENTATION_CONTEXT ( 3 ) GLOBAL_UNCERTAINTY_ASSIGNED_CONTEXT ( ( #87 ) ) GLOBAL_UNIT_ASSIGNED_CONTEXT ( ( #121, #70, #129 ) ) REPRESENTATION_CONTEXT ( 'NONE', 'WORKASPACE' ) );
#42 = DIRECTION ( 'NONE',  ( 3.491481338843133355E-15, -0.0000000000000000000, 1.000000000000000000 ) ) ;
#43 = DIRECTION ( 'NONE',  ( 0.0000000000000000000, 1.000000000000000000, 0.0000000000000000000 ) ) ;
#44 = CIRCLE ( 'NONE', #168, 1.199999999999999956 ) ;
#45 = DIRECTION ( 'NONE',  ( 3.491481338843133355E-15, -1.245781538759969447E-16, 1.000000000000000000 ) ) ;
#46 = ADVANCED_FACE ( 'NONE', ( #149 ), #241, .T. ) ;
#47 = APPLICATION_CONTEXT ( 'configuration controlled 3d designs of mechanical parts and assemblies' ) ;
#48 = CARTESIAN_POINT ( 'NONE',  ( 1.326762908760390423E-13, 1.199999999999995293, 38.00000000000000000 ) ) ;
#49 = ADVANCED_BREP_SHAPE_REPRESENTATION ( '997936', ( #81, #235, #199 ), #41 ) ;
#50 = EDGE_LOOP ( 'NONE', ( #238 ) ) ;
#51 = EDGE_LOOP ( 'NONE', ( #178 ) ) ;
#52 = DIRECTION ( 'NONE',  ( -4.412106040510445187E-31, -1.000000000000000000, -1.245781538759969447E-16 ) ) ;
#53 = CYLINDRICAL_SURFACE ( 'NONE', #39, 1.499999999999999556 ) ;
#54 = PERSON_AND_ORGANIZATION ( #204, #180 ) ;
#55 = DATE_AND_TIME ( #148, #83 ) ;
#56 = DIRECTION ( 'NONE',  ( 4.275831445896958607E-31, 1.000000000000000000, 1.224646799147353207E-16 ) ) ;
#57 = SECURITY_CLASSIFICATION_LEVEL ( 'unclassified' ) ;
#58 = CIRCLE ( 'NONE', #65, 1.000000000000000000 ) ;
#59 = PRODUCT_DEFINITION ( 'UNKNOWN', '', #104, #120 ) ;
#60 = DIRECTION ( 'NONE',  ( -3.491481338843133355E-15, 1.224646799147353207E-16, -1.000000000000000000 ) ) ;
#61 = FACE_OUTER_BOUND ( 'NONE', #182, .T. ) ;
#62 = APPROVAL_DATE_TIME ( #223, #131 ) ;
#63 = APPLICATION_CONTEXT ( 'configuration controlled 3d designs of mechanical parts and assemblies' ) ;
#64 = FACE_OUTER_BOUND ( 'NONE', #198, .T. ) ;
#65 = AXIS2_PLACEMENT_3D ( 'NONE', #140, #42, #103 ) ;
#66 = CARTESIAN_POINT ( 'NONE',  ( 1.316288464743861212E-13, -4.616918432785521081E-15, 37.69999999999999574 ) ) ;
#67 = DIRECTION ( 'NONE',  ( -4.349622994855716619E-31, -1.000000000000000000, -1.245781538759969693E-16 ) ) ;
#68 = EDGE_LOOP ( 'NONE', ( #186 ) ) ;
#69 = APPROVAL_PERSON_ORGANIZATION ( #13, #123, #7 ) ;
#70 =( NAMED_UNIT ( * ) PLANE_ANGLE_UNIT ( ) SI_UNIT ( $, .RADIAN. ) );
#71 = VERTEX_POINT ( 'NONE', #73 ) ;
#72 = EDGE_LOOP ( 'NONE', ( #14 ) ) ;
#73 = CARTESIAN_POINT ( 'NONE',  ( 1.316288464743861212E-13, 1.499999999999995337, 37.69999999999999574 ) ) ;
#74 = ORIENTED_EDGE ( 'NONE', *, *, #95, .F. ) ;
#75 = AXIS2_PLACEMENT_3D ( 'NONE', #147, #107, #52 ) ;
#76 = ORIENTED_EDGE ( 'NONE', *, *, #128, .F. ) ;
#77 = CARTESIAN_POINT ( 'NONE',  ( 1.396592535537253342E-14, -0.9999999999999913403, 4.000000000000000000 ) ) ;
#78 = CARTESIAN_POINT ( 'NONE',  ( -3.206873584422718517E-31, 1.124819836996392932E-32, -9.184850993605147205E-17 ) ) ;
#79 = COORDINATED_UNIVERSAL_TIME_OFFSET ( 1, 0, .AHEAD. ) ;
#80 = ADVANCED_FACE ( 'NONE', ( #166 ), #93, .F. ) ;
#81 = MANIFOLD_SOLID_BREP ( 'Corps-Déplacer/Copier1[1]', #160 ) ;
#82 = PERSON_AND_ORGANIZATION_ROLE ( 'design_supplier' ) ;
#83 = LOCAL_TIME ( 9, 56, 54.00000000000000000, #30 ) ;
#84 = DIRECTION ( 'NONE',  ( 3.491481338843133355E-15, -1.224646799147353207E-16, 1.000000000000000000 ) ) ;
#85 = PERSON_AND_ORGANIZATION_ROLE ( 'creator' ) ;
#86 = DIRECTION ( 'NONE',  ( 3.491481338843133355E-15, -1.245781538759969447E-16, 1.000000000000000000 ) ) ;
#87 = UNCERTAINTY_MEASURE_WITH_UNIT (LENGTH_MEASURE( 1.000000000000000082E-05 ), #121, 'distance_accuracy_value', 'NONE');
#88 = EDGE_LOOP ( 'NONE', ( #74 ) ) ;
#89 = APPROVAL_DATE_TIME ( #55, #109 ) ;
#90 = ORIENTED_EDGE ( 'NONE', *, *, #209, .T. ) ;
#91 = CALENDAR_DATE ( 2021, 18, 11 ) ;
#92 = DIRECTION ( 'NONE',  ( 3.491481338843133355E-15, -1.224646799147353207E-16, 1.000000000000000000 ) ) ;
#93 = PLANE ( 'NONE',  #4 ) ;
#94 = TOROIDAL_SURFACE ( 'NONE', #75, 8.999999999999992895, 8.000000000000001776 ) ;
#95 = EDGE_CURVE ( 'NONE', #212, #212, #44, .T. ) ;
#96 = DATE_TIME_ROLE ( 'classification_date' ) ;
#97 = LOCAL_TIME ( 9, 56, 54.00000000000000000, #179 ) ;
#98 = FACE_OUTER_BOUND ( 'NONE', #68, .T. ) ;
#99 = CIRCLE ( 'NONE', #237, 1.499999999999999556 ) ;
#100 = PERSON_AND_ORGANIZATION ( #204, #180 ) ;
#101 = CC_DESIGN_PERSON_AND_ORGANIZATION_ASSIGNMENT ( #202, #231, ( #221 ) ) ;
#102 = FACE_OUTER_BOUND ( 'NONE', #18, .T. ) ;
#103 = DIRECTION ( 'NONE',  ( 1.000000000000000000, 0.0000000000000000000, -3.469446951953614189E-15 ) ) ;
#104 = PRODUCT_DEFINITION_FORMATION_WITH_SPECIFIED_SOURCE ( 'ANY', '', #221, .NOT_KNOWN. ) ;
#105 = CARTESIAN_POINT ( 'NONE',  ( 1.745740669421566678E-15, 0.0000000000000000000, 0.5000000000000000000 ) ) ;
#106 = EDGE_LOOP ( 'NONE', ( #146 ) ) ;
#107 = DIRECTION ( 'NONE',  ( 3.491481338843133355E-15, -1.245781538759969447E-16, 1.000000000000000000 ) ) ;
#108 = CC_DESIGN_APPROVAL ( #109, ( #104 ) ) ;
#109 = APPROVAL ( #240, 'UNSPECIFIED' ) ;
#110 = CARTESIAN_POINT ( 'NONE',  ( 0.4999999999999995559, 0.0000000000000000000, -1.745740669421565100E-15 ) ) ;
#111 = APPLICATION_PROTOCOL_DEFINITION ( 'international standard', 'config_control_design', 1994, #63 ) ;
#112 = FACE_OUTER_BOUND ( 'NONE', #72, .T. ) ;
#113 = EDGE_CURVE ( 'NONE', #71, #71, #170, .T. ) ;
#114 = EDGE_LOOP ( 'NONE', ( #163 ) ) ;
#115 = CONICAL_SURFACE ( 'NONE', #210, 1.499999999999999778, 0.7853981633974453924 ) ;
#116 = DIRECTION ( 'NONE',  ( 3.491481338843133355E-15, -0.0000000000000000000, 1.000000000000000000 ) ) ;
#117 = FACE_OUTER_BOUND ( 'NONE', #215, .T. ) ;
#118 = FACE_BOUND ( 'NONE', #114, .T. ) ;
#119 = DIRECTION ( 'NONE',  ( 0.0000000000000000000, -1.000000000000000000, 0.0000000000000000000 ) ) ;
#120 = DESIGN_CONTEXT ( 'detailed design', #63, 'design' ) ;
#121 =( LENGTH_UNIT ( ) NAMED_UNIT ( * ) SI_UNIT ( .MILLI., .METRE. ) );
#122 = EDGE_LOOP ( 'NONE', ( #90 ) ) ;
#123 = APPROVAL ( #15, 'UNSPECIFIED' ) ;
#124 = DATE_AND_TIME ( #10, #97 ) ;
#125 = APPROVAL_PERSON_ORGANIZATION ( #2, #131, #171 ) ;
#126 = CARTESIAN_POINT ( 'NONE',  ( 2.368579804132103948E-14, 1.499999999999999112, 6.783882181415033408 ) ) ;
#127 = PRODUCT_RELATED_PRODUCT_CATEGORY ( 'detail', '', ( #221 ) ) ;
#128 = EDGE_CURVE ( 'NONE', #162, #162, #58, .T. ) ;
#129 =( NAMED_UNIT ( * ) SI_UNIT ( $, .STERADIAN. ) SOLID_ANGLE_UNIT ( ) );
#130 = DIRECTION ( 'NONE',  ( -4.275831445896958607E-31, -1.000000000000000000, -1.224646799147353207E-16 ) ) ;
#131 = APPROVAL ( #191, 'UNSPECIFIED' ) ;
#132 = CC_DESIGN_APPROVAL ( #123, ( #59 ) ) ;
#133 = DIRECTION ( 'NONE',  ( 0.0000000000000000000, 1.000000000000000000, 0.0000000000000000000 ) ) ;
#134 = APPROVAL_PERSON_ORGANIZATION ( #54, #109, #233 ) ;
#135 = CALENDAR_DATE ( 2021, 18, 11 ) ;
#136 = DIRECTION ( 'NONE',  ( 3.491481338843133355E-15, -0.0000000000000000000, 1.000000000000000000 ) ) ;
#137 = FACE_OUTER_BOUND ( 'NONE', #197, .T. ) ;
#138 = LOCAL_TIME ( 9, 56, 54.00000000000000000, #142 ) ;
#139 = CARTESIAN_POINT ( 'NONE',  ( 2.368579804132103948E-14, -3.468109027689682829E-16, 6.783882181415033408 ) ) ;
#140 = CARTESIAN_POINT ( 'NONE',  ( 1.745740669421567072E-15, 0.0000000000000000000, 0.5000000000000001110 ) ) ;
#141 = ORIENTED_EDGE ( 'NONE', *, *, #177, .F. ) ;
#142 = COORDINATED_UNIVERSAL_TIME_OFFSET ( 1, 0, .AHEAD. ) ;
#143 = CARTESIAN_POINT ( 'NONE',  ( 0.0000000000000000000, 0.0000000000000000000, 0.0000000000000000000 ) ) ;
#144 = PRODUCT_DEFINITION_SHAPE ( 'NONE', 'NONE',  #59 ) ;
#145 = VERTEX_POINT ( 'NONE', #110 ) ;
#146 = ORIENTED_EDGE ( 'NONE', *, *, #177, .T. ) ;
#147 = CARTESIAN_POINT ( 'NONE',  ( 1.396592535537253027E-14, 0.0000000000000000000, 3.999999999999999112 ) ) ;
#148 = CALENDAR_DATE ( 2021, 18, 11 ) ;
#149 = FACE_OUTER_BOUND ( 'NONE', #159, .T. ) ;
#150 = CIRCLE ( 'NONE', #175, 0.9999999999999908962 ) ;
#151 = CC_DESIGN_DATE_AND_TIME_ASSIGNMENT ( #124, #161, ( #59 ) ) ;
#152 = DIRECTION ( 'NONE',  ( 3.491481338843133355E-15, -1.245781538759969447E-16, 1.000000000000000000 ) ) ;
#153 = DIRECTION ( 'NONE',  ( 1.000000000000000000, 0.0000000000000000000, -3.491481338843133355E-15 ) ) ;
#154 = CC_DESIGN_SECURITY_CLASSIFICATION ( #243, ( #104 ) ) ;
#155 = CC_DESIGN_PERSON_AND_ORGANIZATION_ASSIGNMENT ( #236, #85, ( #104 ) ) ;
#156 = CARTESIAN_POINT ( 'NONE',  ( 1.396592535537253342E-14, -4.983126155039877787E-16, 4.000000000000000000 ) ) ;
#157 = CARTESIAN_POINT ( 'NONE',  ( 1.000000000000001776, 0.0000000000000000000, 0.4999999999999966693 ) ) ;
#158 = CIRCLE ( 'NONE', #216, 0.4999999999999995559 ) ;
#159 = EDGE_LOOP ( 'NONE', ( #12 ) ) ;
#160 = CLOSED_SHELL ( 'NONE', ( #1, #229, #80, #239, #225 ) ) ;
#161 = DATE_TIME_ROLE ( 'creation_date' ) ;
#162 = VERTEX_POINT ( 'NONE', #157 ) ;
#163 = ORIENTED_EDGE ( 'NONE', *, *, #95, .T. ) ;
#164 = PERSON_AND_ORGANIZATION ( #204, #180 ) ;
#165 = PERSON_AND_ORGANIZATION_ROLE ( 'creator' ) ;
#166 = FACE_OUTER_BOUND ( 'NONE', #88, .T. ) ;
#167 = DIRECTION ( 'NONE',  ( 0.0000000000000000000, 1.000000000000000000, 0.0000000000000000000 ) ) ;
#168 = AXIS2_PLACEMENT_3D ( 'NONE', #8, #60, #167 ) ;
#169 = ADVANCED_FACE ( 'NONE', ( #61, #102 ), #31, .T. ) ;
#170 = CIRCLE ( 'NONE', #11, 1.499999999999999778 ) ;
#171 = APPROVAL_ROLE ( '' ) ;
#172 = DIRECTION ( 'NONE',  ( -3.491481338843133355E-15, 1.224646799147353207E-16, -1.000000000000000000 ) ) ;
#173 = CC_DESIGN_PERSON_AND_ORGANIZATION_ASSIGNMENT ( #224, #82, ( #104 ) ) ;
#174 = DIRECTION ( 'NONE',  ( 3.491481338843133355E-15, -1.245781538759969447E-16, 1.000000000000000000 ) ) ;
#175 = AXIS2_PLACEMENT_3D ( 'NONE', #193, #152, #23 ) ;
#176 = DIRECTION ( 'NONE',  ( 1.000000000000000000, 0.0000000000000000000, -3.491481338843133355E-15 ) ) ;
#177 = EDGE_CURVE ( 'NONE', #234, #234, #99, .T. ) ;
#178 = ORIENTED_EDGE ( 'NONE', *, *, #128, .T. ) ;
#179 = COORDINATED_UNIVERSAL_TIME_OFFSET ( 1, 0, .AHEAD. ) ;
#180 = ORGANIZATION ( 'UNSPECIFIED', 'UNSPECIFIED', '' ) ;
#181 = VERTEX_POINT ( 'NONE', #34 ) ;
#182 = EDGE_LOOP ( 'NONE', ( #217 ) ) ;
#183 = DIRECTION ( 'NONE',  ( 1.000000000000000000, 0.0000000000000000000, 0.0000000000000000000 ) ) ;
#184 = PLANE ( 'NONE',  #187 ) ;
#185 = DIRECTION ( 'NONE',  ( 0.0000000000000000000, 0.0000000000000000000, 1.000000000000000000 ) ) ;
#186 = ORIENTED_EDGE ( 'NONE', *, *, #200, .F. ) ;
#187 = AXIS2_PLACEMENT_3D ( 'NONE', #16, #92, #130 ) ;
#188 = CIRCLE ( 'NONE', #208, 0.9999999999999908962 ) ;
#189 = AXIS2_PLACEMENT_3D ( 'NONE', #230, #86, #67 ) ;
#190 = ADVANCED_FACE ( 'NONE', ( #98, #6 ), #5, .T. ) ;
#191 = APPROVAL_STATUS ( 'not_yet_approved' ) ;
#192 = AXIS2_PLACEMENT_3D ( 'NONE', #105, #136, #176 ) ;
#193 = CARTESIAN_POINT ( 'NONE',  ( 1.396592535537253342E-14, -4.983126155039877787E-16, 4.000000000000000000 ) ) ;
#194 = FACE_OUTER_BOUND ( 'NONE', #122, .T. ) ;
#195 = EDGE_CURVE ( 'NONE', #145, #145, #158, .T. ) ;
#196 = DIRECTION ( 'NONE',  ( 4.275831445896958607E-31, 1.000000000000000000, 1.224646799147353207E-16 ) ) ;
#197 = EDGE_LOOP ( 'NONE', ( #219 ) ) ;
#198 = EDGE_LOOP ( 'NONE', ( #35 ) ) ;
#199 = AXIS2_PLACEMENT_3D ( 'NONE', #218, #185, #183 ) ;
#200 = EDGE_CURVE ( 'NONE', #17, #17, #188, .T. ) ;
#201 = DIRECTION ( 'NONE',  ( -3.491481338843133355E-15, 1.224646799147353207E-16, -1.000000000000000000 ) ) ;
#202 = PERSON_AND_ORGANIZATION ( #204, #180 ) ;
#203 = AXIS2_PLACEMENT_3D ( 'NONE', #78, #220, #56 ) ;
#204 = PERSON ( 'UNSPECIFIED', 'UNSPECIFIED', 'UNSPECIFIED', ('UNSPECIFIED'), ('UNSPECIFIED'), ('UNSPECIFIED') ) ;
#205 = CARTESIAN_POINT ( 'NONE',  ( 1.326762908760390423E-13, 8.998558695971077224E-33, 38.00000000000000000 ) ) ;
#206 = SHAPE_DEFINITION_REPRESENTATION ( #144, #49 ) ;
#207 = CC_DESIGN_DATE_AND_TIME_ASSIGNMENT ( #37, #96, ( #243 ) ) ;
#208 = AXIS2_PLACEMENT_3D ( 'NONE', #156, #45, #119 ) ;
#209 = EDGE_CURVE ( 'NONE', #181, #181, #150, .T. ) ;
#210 = AXIS2_PLACEMENT_3D ( 'NONE', #66, #172, #43 ) ;
#211 = CARTESIAN_POINT ( 'NONE',  ( 1.396592535537253342E-14, 1.124819836996391564E-32, 4.000000000000000000 ) ) ;
#212 = VERTEX_POINT ( 'NONE', #48 ) ;
#213 = CARTESIAN_POINT ( 'NONE',  ( 0.0000000000000000000, 0.0000000000000000000, 0.0000000000000000000 ) ) ;
#214 = APPROVAL_DATE_TIME ( #29, #123 ) ;
#215 = EDGE_LOOP ( 'NONE', ( #141 ) ) ;
#216 = AXIS2_PLACEMENT_3D ( 'NONE', #213, #116, #153 ) ;
#217 = ORIENTED_EDGE ( 'NONE', *, *, #195, .T. ) ;
#218 = CARTESIAN_POINT ( 'NONE',  ( 0.0000000000000000000, 0.0000000000000000000, 0.0000000000000000000 ) ) ;
#219 = ORIENTED_EDGE ( 'NONE', *, *, #113, .F. ) ;
#220 = DIRECTION ( 'NONE',  ( -3.491481338843133355E-15, 1.224646799147353207E-16, -1.000000000000000000 ) ) ;
#221 = PRODUCT ( '997936', '997936', '', ( #26 ) ) ;
#222 = AXIS2_PLACEMENT_3D ( 'NONE', #211, #84, #3 ) ;
#223 = DATE_AND_TIME ( #242, #25 ) ;
#224 = PERSON_AND_ORGANIZATION ( #204, #180 ) ;
#225 = ADVANCED_FACE ( 'NONE', ( #64 ), #228, .F. ) ;
#226 = PERSON_AND_ORGANIZATION_ROLE ( 'classification_officer' ) ;
#227 = LOCAL_TIME ( 9, 56, 54.00000000000000000, #19 ) ;
#228 = PLANE ( 'NONE',  #222 ) ;
#229 = ADVANCED_FACE ( 'NONE', ( #118, #137 ), #115, .T. ) ;
#230 = CARTESIAN_POINT ( 'NONE',  ( -6.413747168845438786E-31, 0.0000000000000000000, -1.836970198721029934E-16 ) ) ;
#231 = PERSON_AND_ORGANIZATION_ROLE ( 'design_owner' ) ;
#232 = CLOSED_SHELL ( 'NONE', ( #190, #28, #169, #46 ) ) ;
#233 = APPROVAL_ROLE ( '' ) ;
#234 = VERTEX_POINT ( 'NONE', #126 ) ;
#235 = MANIFOLD_SOLID_BREP ( 'Corps-Déplacer/Copier1[2]', #232 ) ;
#236 = PERSON_AND_ORGANIZATION ( #204, #180 ) ;
#237 = AXIS2_PLACEMENT_3D ( 'NONE', #139, #174, #40 ) ;
#238 = ORIENTED_EDGE ( 'NONE', *, *, #113, .T. ) ;
#239 = ADVANCED_FACE ( 'NONE', ( #117, #194 ), #94, .F. ) ;
#240 = APPROVAL_STATUS ( 'not_yet_approved' ) ;
#241 = PLANE ( 'NONE',  #203 ) ;
#242 = CALENDAR_DATE ( 2021, 18, 11 ) ;
#243 = SECURITY_CLASSIFICATION ( '', '', #57 ) ;
ENDSEC;
END-ISO-10303-21;
