ISO-10303-21;
HEADER;
FILE_DESCRIPTION (( 'STEP AP203' ),
    '1' );
FILE_NAME ('997929.step',
    '2021-11-17T12:43:08',
    ( '' ),
    ( '' ),
    'SwSTEP 2.0',
    'SolidWorks 2019',
    '' );
FILE_SCHEMA (( 'CONFIG_CONTROL_DESIGN' ));
ENDSEC;

DATA;
#1 = ORIENTED_EDGE ( 'NONE', *, *, #28, .F. ) ;
#2 = COORDINATED_UNIVERSAL_TIME_OFFSET ( 1, 0, .AHEAD. ) ;
#3 = DIRECTION ( 'NONE',  ( 0.0000000000000000000, -1.000000000000000000, 0.0000000000000000000 ) ) ;
#4 = CARTESIAN_POINT ( 'NONE',  ( 3.351822085289407390E-14, -1.175660927181458842E-15, 9.599999999999999645 ) ) ;
#5 = CC_DESIGN_SECURITY_CLASSIFICATION ( #222, ( #184 ) ) ;
#6 = CARTESIAN_POINT ( 'NONE',  ( 0.0000000000000000000, 0.0000000000000000000, 0.0000000000000000000 ) ) ;
#7 = FACE_BOUND ( 'NONE', #165, .T. ) ;
#8 = CARTESIAN_POINT ( 'NONE',  ( 0.0000000000000000000, 0.0000000000000000000, 0.0000000000000000000 ) ) ;
#9 = VERTEX_POINT ( 'NONE', #181 ) ;
#10 = ADVANCED_FACE ( 'NONE', ( #193 ), #86, .T. ) ;
#11 = AXIS2_PLACEMENT_3D ( 'NONE', #72, #136, #229 ) ;
#12 = EDGE_CURVE ( 'NONE', #115, #115, #102, .T. ) ;
#13 = AXIS2_PLACEMENT_3D ( 'NONE', #180, #100, #137 ) ;
#14 = EDGE_CURVE ( 'NONE', #119, #119, #125, .T. ) ;
#15 = EDGE_LOOP ( 'NONE', ( #151 ) ) ;
#16 = CC_DESIGN_APPROVAL ( #30, ( #88 ) ) ;
#17 = ORIENTED_EDGE ( 'NONE', *, *, #68, .F. ) ;
#18 = DATE_AND_TIME ( #124, #82 ) ;
#19 = ORIENTED_EDGE ( 'NONE', *, *, #166, .F. ) ;
#20 = ORIENTED_EDGE ( 'NONE', *, *, #12, .F. ) ;
#21 = DATE_TIME_ROLE ( 'classification_date' ) ;
#22 = DIRECTION ( 'NONE',  ( -3.491481338843133355E-15, 1.224646799147353207E-16, -1.000000000000000000 ) ) ;
#23 = CARTESIAN_POINT ( 'NONE',  ( 3.351822085289407390E-14, 4.499279347985571729E-32, 9.599999999999999645 ) ) ;
#24 = DIRECTION ( 'NONE',  ( 4.275831445896959482E-31, 1.000000000000000000, 1.224646799147353207E-16 ) ) ;
#25 = DIRECTION ( 'NONE',  ( 0.0000000000000000000, 1.000000000000000000, 0.0000000000000000000 ) ) ;
#26 = DIRECTION ( 'NONE',  ( -3.491481338843133355E-15, 1.224646799147353207E-16, -1.000000000000000000 ) ) ;
#27 = CARTESIAN_POINT ( 'NONE',  ( 0.0000000000000000000, 0.0000000000000000000, 0.0000000000000000000 ) ) ;
#28 = EDGE_CURVE ( 'NONE', #9, #9, #145, .T. ) ;
#29 = DIRECTION ( 'NONE',  ( -4.275831445896958607E-31, -1.000000000000000000, -1.224646799147353207E-16 ) ) ;
#30 = APPROVAL ( #112, 'UNSPECIFIED' ) ;
#31 = ORIENTED_EDGE ( 'NONE', *, *, #14, .F. ) ;
#32 = EDGE_LOOP ( 'NONE', ( #239 ) ) ;
#33 = PERSON_AND_ORGANIZATION_ROLE ( 'classification_officer' ) ;
#34 = PERSON_AND_ORGANIZATION ( #224, #104 ) ;
#35 = CARTESIAN_POINT ( 'NONE',  ( -2.565498867538175514E-30, 8.998558695971145647E-32, -7.347880794884119736E-16 ) ) ;
#36 = APPROVAL_DATE_TIME ( #18, #144 ) ;
#37 = ORIENTED_EDGE ( 'NONE', *, *, #166, .T. ) ;
#38 = CLOSED_SHELL ( 'NONE', ( #178, #241, #42, #189, #220, #56 ) ) ;
#39 = PLANE ( 'NONE',  #67 ) ;
#40 = FACE_OUTER_BOUND ( 'NONE', #127, .T. ) ;
#41 = DIRECTION ( 'NONE',  ( 0.0000000000000000000, 1.000000000000000000, 0.0000000000000000000 ) ) ;
#42 = ADVANCED_FACE ( 'NONE', ( #140 ), #173, .F. ) ;
#43 = PLANE ( 'NONE',  #182 ) ;
#44 = CC_DESIGN_APPROVAL ( #172, ( #222 ) ) ;
#45 = DIRECTION ( 'NONE',  ( 3.491481338843133355E-15, -1.237615716775288637E-16, 1.000000000000000000 ) ) ;
#46 = DIRECTION ( 'NONE',  ( -3.491481338843133355E-15, 1.224646799147353207E-16, -1.000000000000000000 ) ) ;
#47 = CARTESIAN_POINT ( 'NONE',  ( 2.758270257686075477E-13, 5.999999999999977796, 79.00000000000000000 ) ) ;
#48 = LOCAL_TIME ( 13, 43, 8.000000000000000000, #128 ) ;
#49 = CC_DESIGN_PERSON_AND_ORGANIZATION_ASSIGNMENT ( #204, #149, ( #184 ) ) ;
#50 = AXIS2_PLACEMENT_3D ( 'NONE', #156, #114, #198 ) ;
#51 = COORDINATED_UNIVERSAL_TIME_OFFSET ( 1, 0, .AHEAD. ) ;
#52 = AXIS2_PLACEMENT_3D ( 'NONE', #35, #22, #60 ) ;
#53 = EDGE_LOOP ( 'NONE', ( #146 ) ) ;
#54 = COORDINATED_UNIVERSAL_TIME_OFFSET ( 1, 0, .AHEAD. ) ;
#55 = PERSON_AND_ORGANIZATION ( #224, #104 ) ;
#56 = ADVANCED_FACE ( 'NONE', ( #76 ), #43, .F. ) ;
#57 = CALENDAR_DATE ( 2021, 17, 11 ) ;
#58 = DIRECTION ( 'NONE',  ( -3.491481338843133355E-15, 1.224646799147353207E-16, -1.000000000000000000 ) ) ;
#59 = AXIS2_PLACEMENT_3D ( 'NONE', #234, #214, #25 ) ;
#60 = DIRECTION ( 'NONE',  ( 4.275831445896959482E-31, 1.000000000000000000, 1.224646799147353207E-16 ) ) ;
#61 = CARTESIAN_POINT ( 'NONE',  ( 3.351822085289407390E-14, -1.188111088104277012E-15, 9.599999999999999645 ) ) ;
#62 = DIRECTION ( 'NONE',  ( 3.491481338843133355E-15, -1.237615716775288637E-16, 1.000000000000000000 ) ) ;
#63 = FACE_OUTER_BOUND ( 'NONE', #167, .T. ) ;
#64 = LOCAL_TIME ( 13, 43, 8.000000000000000000, #54 ) ;
#65 = EDGE_LOOP ( 'NONE', ( #105 ) ) ;
#66 = SHAPE_DEFINITION_REPRESENTATION ( #157, #110 ) ;
#67 = AXIS2_PLACEMENT_3D ( 'NONE', #23, #175, #29 ) ;
#68 = EDGE_CURVE ( 'NONE', #117, #117, #118, .T. ) ;
#69 = PERSON_AND_ORGANIZATION ( #224, #104 ) ;
#70 = DIRECTION ( 'NONE',  ( 0.0000000000000000000, 1.000000000000000000, 0.0000000000000000000 ) ) ;
#71 = MECHANICAL_CONTEXT ( 'NONE', #169, 'mechanical' ) ;
#72 = CARTESIAN_POINT ( 'NONE',  ( 2.793185071074506179E-13, 1.737032836375160175E-30, 79.99999999999998579 ) ) ;
#73 = DATE_AND_TIME ( #188, #64 ) ;
#74 = CC_DESIGN_DATE_AND_TIME_ASSIGNMENT ( #171, #196, ( #88 ) ) ;
#75 = APPROVAL_PERSON_ORGANIZATION ( #135, #144, #106 ) ;
#76 = FACE_OUTER_BOUND ( 'NONE', #236, .T. ) ;
#77 = CARTESIAN_POINT ( 'NONE',  ( 0.0000000000000000000, 6.000000000000000000, 0.0000000000000000000 ) ) ;
#78 = DIRECTION ( 'NONE',  ( -4.321112179779889011E-31, -1.000000000000000000, -1.237615716775288883E-16 ) ) ;
#79 = VERTEX_POINT ( 'NONE', #47 ) ;
#80 = AXIS2_PLACEMENT_3D ( 'NONE', #4, #58, #70 ) ;
#81 = CC_DESIGN_PERSON_AND_ORGANIZATION_ASSIGNMENT ( #92, #226, ( #192 ) ) ;
#82 = LOCAL_TIME ( 13, 43, 8.000000000000000000, #51 ) ;
#83 = MANIFOLD_SOLID_BREP ( 'Corps-Déplacer/Copier1[1]', #38 ) ;
#84 = MANIFOLD_SOLID_BREP ( 'Corps-Déplacer/Copier1[2]', #164 ) ;
#85 = AXIS2_PLACEMENT_3D ( 'NONE', #61, #45, #3 ) ;
#86 = PLANE ( 'NONE',  #89 ) ;
#87 = APPROVAL_STATUS ( 'not_yet_approved' ) ;
#88 = PRODUCT_DEFINITION ( 'UNKNOWN', '', #184, #147 ) ;
#89 = AXIS2_PLACEMENT_3D ( 'NONE', #129, #225, #205 ) ;
#90 = PERSON_AND_ORGANIZATION ( #224, #104 ) ;
#91 = DIRECTION ( 'NONE',  ( 3.491481338843133355E-15, -1.224646799147353207E-16, 1.000000000000000000 ) ) ;
#92 = PERSON_AND_ORGANIZATION ( #224, #104 ) ;
#93 = CYLINDRICAL_SURFACE ( 'NONE', #237, 6.000000000000000000 ) ;
#94 = DIRECTION ( 'NONE',  ( 1.000000000000000000, 0.0000000000000000000, 0.0000000000000000000 ) ) ;
#95 = CYLINDRICAL_SURFACE ( 'NONE', #120, 5.999999999999992895 ) ;
#96 = CIRCLE ( 'NONE', #133, 5.999999999999986677 ) ;
#97 = FACE_OUTER_BOUND ( 'NONE', #32, .T. ) ;
#98 = CARTESIAN_POINT ( 'NONE',  ( 2.758270257686075477E-13, -9.674709713264090904E-15, 79.00000000000000000 ) ) ;
#99 = VERTEX_POINT ( 'NONE', #162 ) ;
#100 = DIRECTION ( 'NONE',  ( 3.491481338843133355E-15, -1.237615716775288637E-16, 1.000000000000000000 ) ) ;
#101 = CC_DESIGN_PERSON_AND_ORGANIZATION_ASSIGNMENT ( #206, #33, ( #222 ) ) ;
#102 = CIRCLE ( 'NONE', #52, 6.000000000000000000 ) ;
#103 = EDGE_LOOP ( 'NONE', ( #131 ) ) ;
#104 = ORGANIZATION ( 'UNSPECIFIED', 'UNSPECIFIED', '' ) ;
#105 = ORIENTED_EDGE ( 'NONE', *, *, #126, .F. ) ;
#106 = APPROVAL_ROLE ( '' ) ;
#107 = PRODUCT_RELATED_PRODUCT_CATEGORY ( 'detail', '', ( #192 ) ) ;
#108 = DATE_AND_TIME ( #109, #150 ) ;
#109 = CALENDAR_DATE ( 2021, 17, 11 ) ;
#110 = ADVANCED_BREP_SHAPE_REPRESENTATION ( '997929', ( #83, #84, #221 ), #143 ) ;
#111 = CONICAL_SURFACE ( 'NONE', #59, 5.999999999999986677, 0.7853981633974518317 ) ;
#112 = APPROVAL_STATUS ( 'not_yet_approved' ) ;
#113 = DIRECTION ( 'NONE',  ( 0.0000000000000000000, 1.000000000000000000, 0.0000000000000000000 ) ) ;
#114 = DIRECTION ( 'NONE',  ( -3.491481338843133355E-15, 1.224646799147353207E-16, -1.000000000000000000 ) ) ;
#115 = VERTEX_POINT ( 'NONE', #77 ) ;
#116 = DIRECTION ( 'NONE',  ( -3.491481338843133355E-15, 1.224646799147353207E-16, -1.000000000000000000 ) ) ;
#117 = VERTEX_POINT ( 'NONE', #216 ) ;
#118 = CIRCLE ( 'NONE', #85, 5.300000000000000711 ) ;
#119 = VERTEX_POINT ( 'NONE', #141 ) ;
#120 = AXIS2_PLACEMENT_3D ( 'NONE', #6, #26, #231 ) ;
#121 = CC_DESIGN_PERSON_AND_ORGANIZATION_ASSIGNMENT ( #34, #152, ( #88 ) ) ;
#122 = CC_DESIGN_APPROVAL ( #144, ( #184 ) ) ;
#123 = EDGE_LOOP ( 'NONE', ( #1 ) ) ;
#124 = CALENDAR_DATE ( 2021, 17, 11 ) ;
#125 = CIRCLE ( 'NONE', #155, 5.999999999999992895 ) ;
#126 = EDGE_CURVE ( 'NONE', #201, #201, #208, .T. ) ;
#127 = EDGE_LOOP ( 'NONE', ( #37 ) ) ;
#128 = COORDINATED_UNIVERSAL_TIME_OFFSET ( 1, 0, .AHEAD. ) ;
#129 = CARTESIAN_POINT ( 'NONE',  ( -1.282749433769087757E-30, 4.499279347985572824E-32, -3.673940397442059868E-16 ) ) ;
#130 = PERSON_AND_ORGANIZATION_ROLE ( 'design_supplier' ) ;
#131 = ORIENTED_EDGE ( 'NONE', *, *, #211, .F. ) ;
#132 = CALENDAR_DATE ( 2021, 17, 11 ) ;
#133 = AXIS2_PLACEMENT_3D ( 'NONE', #98, #46, #41 ) ;
#134 = CARTESIAN_POINT ( 'NONE',  ( 1.256933281983528008E-13, -4.455416580391039093E-15, 36.00000000000000000 ) ) ;
#135 = PERSON_AND_ORGANIZATION ( #224, #104 ) ;
#136 = DIRECTION ( 'NONE',  ( -3.491481338843133355E-15, 1.224646799147353207E-16, -1.000000000000000000 ) ) ;
#137 = DIRECTION ( 'NONE',  ( -4.321112179779889011E-31, -1.000000000000000000, -1.237615716775288637E-16 ) ) ;
#138 = FACE_OUTER_BOUND ( 'NONE', #153, .T. ) ;
#139 = ADVANCED_FACE ( 'NONE', ( #40, #138 ), #93, .T. ) ;
#140 = FACE_OUTER_BOUND ( 'NONE', #123, .T. ) ;
#141 = CARTESIAN_POINT ( 'NONE',  ( 1.371195976320714969E-13, 5.999999999999987566, 39.27261363439068731 ) ) ;
#142 = LOCAL_TIME ( 13, 43, 8.000000000000000000, #2 ) ;
#143 =( GEOMETRIC_REPRESENTATION_CONTEXT ( 3 ) GLOBAL_UNCERTAINTY_ASSIGNED_CONTEXT ( ( #238 ) ) GLOBAL_UNIT_ASSIGNED_CONTEXT ( ( #202, #163, #232 ) ) REPRESENTATION_CONTEXT ( 'NONE', 'WORKASPACE' ) );
#144 = APPROVAL ( #194, 'UNSPECIFIED' ) ;
#145 = CIRCLE ( 'NONE', #50, 4.999999999999992895 ) ;
#146 = ORIENTED_EDGE ( 'NONE', *, *, #126, .T. ) ;
#147 = DESIGN_CONTEXT ( 'detailed design', #190, 'design' ) ;
#148 = ORIENTED_EDGE ( 'NONE', *, *, #12, .T. ) ;
#149 = PERSON_AND_ORGANIZATION_ROLE ( 'creator' ) ;
#150 = LOCAL_TIME ( 13, 43, 8.000000000000000000, #168 ) ;
#151 = ORIENTED_EDGE ( 'NONE', *, *, #14, .T. ) ;
#152 = PERSON_AND_ORGANIZATION_ROLE ( 'creator' ) ;
#153 = EDGE_LOOP ( 'NONE', ( #20 ) ) ;
#154 = FACE_OUTER_BOUND ( 'NONE', #185, .T. ) ;
#155 = AXIS2_PLACEMENT_3D ( 'NONE', #233, #62, #113 ) ;
#156 = CARTESIAN_POINT ( 'NONE',  ( 2.793185071074506179E-13, -9.797174393178824474E-15, 79.99999999999998579 ) ) ;
#157 = PRODUCT_DEFINITION_SHAPE ( 'NONE', 'NONE',  #88 ) ;
#158 = APPROVAL_DATE_TIME ( #73, #30 ) ;
#159 = CARTESIAN_POINT ( 'NONE',  ( 0.0000000000000000000, 0.0000000000000000000, 0.0000000000000000000 ) ) ;
#160 = CARTESIAN_POINT ( 'NONE',  ( 1.256933281983528008E-13, -5.300000000000005151, 36.00000000000000000 ) ) ;
#161 = FACE_OUTER_BOUND ( 'NONE', #187, .T. ) ;
#162 = CARTESIAN_POINT ( 'NONE',  ( 3.351822085289407390E-14, 5.999999999999999112, 9.599999999999999645 ) ) ;
#163 =( NAMED_UNIT ( * ) PLANE_ANGLE_UNIT ( ) SI_UNIT ( $, .RADIAN. ) );
#164 = CLOSED_SHELL ( 'NONE', ( #10, #139, #203 ) ) ;
#165 = EDGE_LOOP ( 'NONE', ( #170 ) ) ;
#166 = EDGE_CURVE ( 'NONE', #99, #99, #191, .T. ) ;
#167 = EDGE_LOOP ( 'NONE', ( #31 ) ) ;
#168 = COORDINATED_UNIVERSAL_TIME_OFFSET ( 1, 0, .AHEAD. ) ;
#169 = APPLICATION_CONTEXT ( 'configuration controlled 3d designs of mechanical parts and assemblies' ) ;
#170 = ORIENTED_EDGE ( 'NONE', *, *, #28, .T. ) ;
#171 = DATE_AND_TIME ( #132, #48 ) ;
#172 = APPROVAL ( #87, 'UNSPECIFIED' ) ;
#173 = PLANE ( 'NONE',  #11 ) ;
#174 = DATE_AND_TIME ( #57, #142 ) ;
#175 = DIRECTION ( 'NONE',  ( 3.491481338843133355E-15, -1.224646799147353207E-16, 1.000000000000000000 ) ) ;
#176 = DIRECTION ( 'NONE',  ( 0.0000000000000000000, 0.0000000000000000000, 1.000000000000000000 ) ) ;
#177 = FACE_OUTER_BOUND ( 'NONE', #53, .T. ) ;
#178 = ADVANCED_FACE ( 'NONE', ( #154, #195 ), #95, .T. ) ;
#179 = CYLINDRICAL_SURFACE ( 'NONE', #199, 5.300000000000000711 ) ;
#180 = CARTESIAN_POINT ( 'NONE',  ( 1.256933281983528008E-13, -5.204170427930421283E-15, 36.00000000000000000 ) ) ;
#181 = CARTESIAN_POINT ( 'NONE',  ( 2.793185071074506179E-13, 4.999999999999984013, 79.99999999999998579 ) ) ;
#182 = AXIS2_PLACEMENT_3D ( 'NONE', #212, #91, #215 ) ;
#183 = ORIENTED_EDGE ( 'NONE', *, *, #211, .T. ) ;
#184 = PRODUCT_DEFINITION_FORMATION_WITH_SPECIFIED_SOURCE ( 'ANY', '', #192, .NOT_KNOWN. ) ;
#185 = EDGE_LOOP ( 'NONE', ( #183 ) ) ;
#186 = APPROVAL_ROLE ( '' ) ;
#187 = EDGE_LOOP ( 'NONE', ( #19 ) ) ;
#188 = CALENDAR_DATE ( 2021, 17, 11 ) ;
#189 = ADVANCED_FACE ( 'NONE', ( #97, #227 ), #179, .T. ) ;
#190 = APPLICATION_CONTEXT ( 'configuration controlled 3d designs of mechanical parts and assemblies' ) ;
#191 = CIRCLE ( 'NONE', #80, 6.000000000000000000 ) ;
#192 = PRODUCT ( '997929', '997929', '', ( #71 ) ) ;
#193 = FACE_OUTER_BOUND ( 'NONE', #242, .T. ) ;
#194 = APPROVAL_STATUS ( 'not_yet_approved' ) ;
#195 = FACE_OUTER_BOUND ( 'NONE', #15, .T. ) ;
#196 = DATE_TIME_ROLE ( 'creation_date' ) ;
#197 = CC_DESIGN_PERSON_AND_ORGANIZATION_ASSIGNMENT ( #55, #130, ( #184 ) ) ;
#198 = DIRECTION ( 'NONE',  ( 0.0000000000000000000, 1.000000000000000000, 0.0000000000000000000 ) ) ;
#199 = AXIS2_PLACEMENT_3D ( 'NONE', #8, #209, #78 ) ;
#200 = DIRECTION ( 'NONE',  ( 3.491481338843133355E-15, -1.237615716775288637E-16, 1.000000000000000000 ) ) ;
#201 = VERTEX_POINT ( 'NONE', #160 ) ;
#202 =( LENGTH_UNIT ( ) NAMED_UNIT ( * ) SI_UNIT ( .MILLI., .METRE. ) );
#203 = ADVANCED_FACE ( 'NONE', ( #161 ), #39, .T. ) ;
#204 = PERSON_AND_ORGANIZATION ( #224, #104 ) ;
#205 = DIRECTION ( 'NONE',  ( 4.275831445896958607E-31, 1.000000000000000000, 1.224646799147353207E-16 ) ) ;
#206 = PERSON_AND_ORGANIZATION ( #224, #104 ) ;
#207 = SECURITY_CLASSIFICATION_LEVEL ( 'unclassified' ) ;
#208 = CIRCLE ( 'NONE', #243, 5.300000000000000711 ) ;
#209 = DIRECTION ( 'NONE',  ( 3.491481338843133355E-15, -1.237615716775288637E-16, 1.000000000000000000 ) ) ;
#210 = APPROVAL_ROLE ( '' ) ;
#211 = EDGE_CURVE ( 'NONE', #79, #79, #96, .T. ) ;
#212 = CARTESIAN_POINT ( 'NONE',  ( 3.351822085289407390E-14, 4.499279347985571729E-32, 9.599999999999999645 ) ) ;
#213 = DIRECTION ( 'NONE',  ( 0.0000000000000000000, -1.000000000000000000, 0.0000000000000000000 ) ) ;
#214 = DIRECTION ( 'NONE',  ( -3.491481338843133355E-15, 1.224646799147353207E-16, -1.000000000000000000 ) ) ;
#215 = DIRECTION ( 'NONE',  ( -4.275831445896958607E-31, -1.000000000000000000, -1.224646799147353207E-16 ) ) ;
#216 = CARTESIAN_POINT ( 'NONE',  ( 3.351822085289407390E-14, -5.300000000000001599, 9.599999999999999645 ) ) ;
#217 = APPLICATION_PROTOCOL_DEFINITION ( 'international standard', 'config_control_design', 1994, #169 ) ;
#218 = CC_DESIGN_DATE_AND_TIME_ASSIGNMENT ( #108, #21, ( #222 ) ) ;
#219 = APPROVAL_PERSON_ORGANIZATION ( #90, #172, #186 ) ;
#220 = ADVANCED_FACE ( 'NONE', ( #63, #177 ), #235, .F. ) ;
#221 = AXIS2_PLACEMENT_3D ( 'NONE', #27, #176, #94 ) ;
#222 = SECURITY_CLASSIFICATION ( '', '', #207 ) ;
#223 = APPLICATION_PROTOCOL_DEFINITION ( 'international standard', 'config_control_design', 1994, #190 ) ;
#224 = PERSON ( 'UNSPECIFIED', 'UNSPECIFIED', 'UNSPECIFIED', ('UNSPECIFIED'), ('UNSPECIFIED'), ('UNSPECIFIED') ) ;
#225 = DIRECTION ( 'NONE',  ( -3.491481338843133355E-15, 1.224646799147353207E-16, -1.000000000000000000 ) ) ;
#226 = PERSON_AND_ORGANIZATION_ROLE ( 'design_owner' ) ;
#227 = FACE_OUTER_BOUND ( 'NONE', #65, .T. ) ;
#228 = APPROVAL_PERSON_ORGANIZATION ( #69, #30, #210 ) ;
#229 = DIRECTION ( 'NONE',  ( 4.275831445896958607E-31, 1.000000000000000000, 1.224646799147353207E-16 ) ) ;
#230 = FACE_OUTER_BOUND ( 'NONE', #103, .T. ) ;
#231 = DIRECTION ( 'NONE',  ( 4.275831445896958607E-31, 1.000000000000000000, 1.224646799147353207E-16 ) ) ;
#232 =( NAMED_UNIT ( * ) SI_UNIT ( $, .STERADIAN. ) SOLID_ANGLE_UNIT ( ) );
#233 = CARTESIAN_POINT ( 'NONE',  ( 1.371195976320714969E-13, -5.609194234815923218E-15, 39.27261363439068731 ) ) ;
#234 = CARTESIAN_POINT ( 'NONE',  ( 2.758270257686075477E-13, -9.674709713264090904E-15, 79.00000000000000000 ) ) ;
#235 = TOROIDAL_SURFACE ( 'NONE', #13, 13.30000000000000071, 7.999999999999998224 ) ;
#236 = EDGE_LOOP ( 'NONE', ( #17 ) ) ;
#237 = AXIS2_PLACEMENT_3D ( 'NONE', #159, #116, #24 ) ;
#238 = UNCERTAINTY_MEASURE_WITH_UNIT (LENGTH_MEASURE( 1.000000000000000082E-05 ), #202, 'distance_accuracy_value', 'NONE');
#239 = ORIENTED_EDGE ( 'NONE', *, *, #68, .T. ) ;
#240 = APPROVAL_DATE_TIME ( #174, #172 ) ;
#241 = ADVANCED_FACE ( 'NONE', ( #7, #230 ), #111, .T. ) ;
#242 = EDGE_LOOP ( 'NONE', ( #148 ) ) ;
#243 = AXIS2_PLACEMENT_3D ( 'NONE', #134, #200, #213 ) ;
ENDSEC;
END-ISO-10303-21;
