ISO-10303-21;
HEADER;
FILE_DESCRIPTION (( 'STEP AP203' ),
    '1' );
FILE_NAME ('997928.step',
    '2021-11-17T12:43:07',
    ( '' ),
    ( '' ),
    'SwSTEP 2.0',
    'SolidWorks 2019',
    '' );
FILE_SCHEMA (( 'CONFIG_CONTROL_DESIGN' ));
ENDSEC;

DATA;
#1 = PERSON_AND_ORGANIZATION_ROLE ( 'design_owner' ) ;
#2 = DIRECTION ( 'NONE',  ( 3.491481338843133355E-15, -1.224646799147353207E-16, 1.000000000000000000 ) ) ;
#3 = CALENDAR_DATE ( 2021, 17, 11 ) ;
#4 = CARTESIAN_POINT ( 'NONE',  ( 1.047444401652940007E-13, -3.712847150325865911E-15, 30.00000000000000000 ) ) ;
#5 = PLANE ( 'NONE',  #78 ) ;
#6 = ORGANIZATION ( 'UNSPECIFIED', 'UNSPECIFIED', '' ) ;
#7 = APPROVAL_STATUS ( 'not_yet_approved' ) ;
#8 = SHAPE_DEFINITION_REPRESENTATION ( #95, #205 ) ;
#9 = APPROVAL ( #140, 'UNSPECIFIED' ) ;
#10 = AXIS2_PLACEMENT_3D ( 'NONE', #55, #116, #38 ) ;
#11 = ADVANCED_FACE ( 'NONE', ( #97, #81 ), #22, .T. ) ;
#12 = VERTEX_POINT ( 'NONE', #20 ) ;
#13 = DIRECTION ( 'NONE',  ( -4.321112179779889011E-31, -1.000000000000000000, -1.237615716775288637E-16 ) ) ;
#14 = ORIENTED_EDGE ( 'NONE', *, *, #241, .T. ) ;
#15 = VERTEX_POINT ( 'NONE', #51 ) ;
#16 = CARTESIAN_POINT ( 'NONE',  ( 2.793185071074506684E-14, 3.749399456654642925E-32, 8.000000000000000000 ) ) ;
#17 = VERTEX_POINT ( 'NONE', #193 ) ;
#18 = AXIS2_PLACEMENT_3D ( 'NONE', #16, #19, #118 ) ;
#19 = DIRECTION ( 'NONE',  ( 3.491481338843133355E-15, -1.224646799147353207E-16, 1.000000000000000000 ) ) ;
#20 = CARTESIAN_POINT ( 'NONE',  ( 2.793185071074506684E-14, -4.405000000000002025, 8.000000000000000000 ) ) ;
#21 = CARTESIAN_POINT ( 'NONE',  ( 2.793185071074506684E-13, 2.999519565323700436E-32, 80.00000000000000000 ) ) ;
#22 = CYLINDRICAL_SURFACE ( 'NONE', #134, 5.000000000000000000 ) ;
#23 = CALENDAR_DATE ( 2021, 17, 11 ) ;
#24 = CLOSED_SHELL ( 'NONE', ( #105, #224, #117 ) ) ;
#25 = LOCAL_TIME ( 13, 43, 7.000000000000000000, #216 ) ;
#26 = COORDINATED_UNIVERSAL_TIME_OFFSET ( 1, 0, .AHEAD. ) ;
#27 = APPROVAL ( #7, 'UNSPECIFIED' ) ;
#28 = EDGE_LOOP ( 'NONE', ( #66 ) ) ;
#29 = ORIENTED_EDGE ( 'NONE', *, *, #45, .F. ) ;
#30 = AXIS2_PLACEMENT_3D ( 'NONE', #54, #151, #96 ) ;
#31 = CC_DESIGN_PERSON_AND_ORGANIZATION_ASSIGNMENT ( #160, #164, ( #63 ) ) ;
#32 = PRODUCT ( '997928', '997928', '', ( #36 ) ) ;
#33 = CC_DESIGN_DATE_AND_TIME_ASSIGNMENT ( #162, #214, ( #146 ) ) ;
#34 = VERTEX_POINT ( 'NONE', #74 ) ;
#35 = CARTESIAN_POINT ( 'NONE',  ( 1.047444401652940007E-13, -3.469446951953614189E-15, 30.00000000000000000 ) ) ;
#36 = MECHANICAL_CONTEXT ( 'NONE', #238, 'mechanical' ) ;
#37 = FACE_OUTER_BOUND ( 'NONE', #215, .T. ) ;
#38 = DIRECTION ( 'NONE',  ( 4.275831445896958607E-31, 1.000000000000000000, 1.224646799147353207E-16 ) ) ;
#39 = DIRECTION ( 'NONE',  ( -3.491481338843133355E-15, 1.224646799147353207E-16, -1.000000000000000000 ) ) ;
#40 = AXIS2_PLACEMENT_3D ( 'NONE', #102, #2, #133 ) ;
#41 = EDGE_LOOP ( 'NONE', ( #29 ) ) ;
#42 = PERSON_AND_ORGANIZATION ( #71, #6 ) ;
#43 = ORIENTED_EDGE ( 'NONE', *, *, #111, .T. ) ;
#44 = DATE_AND_TIME ( #65, #25 ) ;
#45 = EDGE_CURVE ( 'NONE', #12, #12, #147, .T. ) ;
#46 = PERSON_AND_ORGANIZATION ( #71, #6 ) ;
#47 = DATE_TIME_ROLE ( 'classification_date' ) ;
#48 = EDGE_LOOP ( 'NONE', ( #145 ) ) ;
#49 = DIRECTION ( 'NONE',  ( 4.275831445896958607E-31, 1.000000000000000000, 1.224646799147353207E-16 ) ) ;
#50 = CC_DESIGN_PERSON_AND_ORGANIZATION_ASSIGNMENT ( #144, #90, ( #146 ) ) ;
#51 = CARTESIAN_POINT ( 'NONE',  ( 2.758270257686074972E-13, 4.999999999999990230, 78.99999999999998579 ) ) ;
#52 = EDGE_LOOP ( 'NONE', ( #14 ) ) ;
#53 = AXIS2_PLACEMENT_3D ( 'NONE', #35, #64, #99 ) ;
#54 = CARTESIAN_POINT ( 'NONE',  ( 0.0000000000000000000, 0.0000000000000000000, 0.0000000000000000000 ) ) ;
#55 = CARTESIAN_POINT ( 'NONE',  ( -2.137915722948479128E-30, 7.498798913309288039E-32, -6.123233995736766282E-16 ) ) ;
#56 = APPLICATION_CONTEXT ( 'configuration controlled 3d designs of mechanical parts and assemblies' ) ;
#57 = FACE_OUTER_BOUND ( 'NONE', #104, .T. ) ;
#58 = DIRECTION ( 'NONE',  ( -3.491481338843133355E-15, 1.224646799147353207E-16, -1.000000000000000000 ) ) ;
#59 =( LENGTH_UNIT ( ) NAMED_UNIT ( * ) SI_UNIT ( .MILLI., .METRE. ) );
#60 = ADVANCED_FACE ( 'NONE', ( #209, #207 ), #234, .F. ) ;
#61 = CARTESIAN_POINT ( 'NONE',  ( 0.0000000000000000000, 0.0000000000000000000, 0.0000000000000000000 ) ) ;
#62 = SECURITY_CLASSIFICATION_LEVEL ( 'unclassified' ) ;
#63 = PRODUCT_DEFINITION_FORMATION_WITH_SPECIFIED_SOURCE ( 'ANY', '', #32, .NOT_KNOWN. ) ;
#64 = DIRECTION ( 'NONE',  ( 3.491481338843133355E-15, -1.237615716775288637E-16, 1.000000000000000000 ) ) ;
#65 = CALENDAR_DATE ( 2021, 17, 11 ) ;
#66 = ORIENTED_EDGE ( 'NONE', *, *, #163, .T. ) ;
#67 = EDGE_CURVE ( 'NONE', #17, #17, #195, .T. ) ;
#68 = APPROVAL_DATE_TIME ( #142, #88 ) ;
#69 = APPLICATION_PROTOCOL_DEFINITION ( 'international standard', 'config_control_design', 1994, #56 ) ;
#70 = AXIS2_PLACEMENT_3D ( 'NONE', #240, #174, #106 ) ;
#71 = PERSON ( 'UNSPECIFIED', 'UNSPECIFIED', 'UNSPECIFIED', ('UNSPECIFIED'), ('UNSPECIFIED'), ('UNSPECIFIED') ) ;
#72 = AXIS2_PLACEMENT_3D ( 'NONE', #210, #229, #176 ) ;
#73 = CC_DESIGN_DATE_AND_TIME_ASSIGNMENT ( #44, #47, ( #108 ) ) ;
#74 = CARTESIAN_POINT ( 'NONE',  ( 2.793185071074506684E-14, 4.999999999999999112, 8.000000000000000000 ) ) ;
#75 = DIRECTION ( 'NONE',  ( 0.0000000000000000000, 1.000000000000000000, 0.0000000000000000000 ) ) ;
#76 = DIRECTION ( 'NONE',  ( 0.0000000000000000000, 1.000000000000000000, 0.0000000000000000000 ) ) ;
#77 = ORIENTED_EDGE ( 'NONE', *, *, #180, .T. ) ;
#78 = AXIS2_PLACEMENT_3D ( 'NONE', #21, #141, #194 ) ;
#79 = LOCAL_TIME ( 13, 43, 7.000000000000000000, #177 ) ;
#80 = FACE_OUTER_BOUND ( 'NONE', #159, .T. ) ;
#81 = FACE_OUTER_BOUND ( 'NONE', #200, .T. ) ;
#82 = COORDINATED_UNIVERSAL_TIME_OFFSET ( 1, 0, .AHEAD. ) ;
#83 = PLANE ( 'NONE',  #40 ) ;
#84 = AXIS2_PLACEMENT_3D ( 'NONE', #137, #225, #168 ) ;
#85 = APPROVAL_DATE_TIME ( #128, #27 ) ;
#86 = AXIS2_PLACEMENT_3D ( 'NONE', #156, #237, #75 ) ;
#87 = FACE_OUTER_BOUND ( 'NONE', #41, .T. ) ;
#88 = APPROVAL ( #218, 'UNSPECIFIED' ) ;
#89 = APPROVAL_ROLE ( '' ) ;
#90 = PERSON_AND_ORGANIZATION_ROLE ( 'creator' ) ;
#91 = AXIS2_PLACEMENT_3D ( 'NONE', #175, #122, #76 ) ;
#92 = ADVANCED_FACE ( 'NONE', ( #161, #192 ), #129, .T. ) ;
#93 = APPROVAL_PERSON_ORGANIZATION ( #231, #27, #89 ) ;
#94 = LOCAL_TIME ( 13, 43, 7.000000000000000000, #26 ) ;
#95 = PRODUCT_DEFINITION_SHAPE ( 'NONE', 'NONE',  #146 ) ;
#96 = DIRECTION ( 'NONE',  ( 1.000000000000000000, 0.0000000000000000000, 0.0000000000000000000 ) ) ;
#97 = FACE_OUTER_BOUND ( 'NONE', #110, .T. ) ;
#98 = FACE_OUTER_BOUND ( 'NONE', #243, .T. ) ;
#99 = DIRECTION ( 'NONE',  ( -4.425225071338858494E-31, -1.000000000000000000, -1.237615716775288637E-16 ) ) ;
#100 = CIRCLE ( 'NONE', #10, 5.000000000000000000 ) ;
#101 = PERSON_AND_ORGANIZATION ( #71, #6 ) ;
#102 = CARTESIAN_POINT ( 'NONE',  ( 2.793185071074506684E-14, 3.749399456654642925E-32, 8.000000000000000000 ) ) ;
#103 = COORDINATED_UNIVERSAL_TIME_OFFSET ( 1, 0, .AHEAD. ) ;
#104 = EDGE_LOOP ( 'NONE', ( #198 ) ) ;
#105 = ADVANCED_FACE ( 'NONE', ( #80 ), #155, .T. ) ;
#106 = DIRECTION ( 'NONE',  ( 0.0000000000000000000, -1.000000000000000000, 0.0000000000000000000 ) ) ;
#107 = APPROVAL_ROLE ( '' ) ;
#108 = SECURITY_CLASSIFICATION ( '', '', #62 ) ;
#109 = APPROVAL_DATE_TIME ( #181, #9 ) ;
#110 = EDGE_LOOP ( 'NONE', ( #183 ) ) ;
#111 = EDGE_CURVE ( 'NONE', #242, #242, #100, .T. ) ;
#112 = CARTESIAN_POINT ( 'NONE',  ( 0.0000000000000000000, 0.0000000000000000000, 0.0000000000000000000 ) ) ;
#113 = CC_DESIGN_APPROVAL ( #27, ( #146 ) ) ;
#114 = CC_DESIGN_APPROVAL ( #9, ( #108 ) ) ;
#115 =( NAMED_UNIT ( * ) SI_UNIT ( $, .STERADIAN. ) SOLID_ANGLE_UNIT ( ) );
#116 = DIRECTION ( 'NONE',  ( -3.491481338843133355E-15, 1.224646799147353207E-16, -1.000000000000000000 ) ) ;
#117 = ADVANCED_FACE ( 'NONE', ( #37 ), #119, .T. ) ;
#118 = DIRECTION ( 'NONE',  ( -4.275831445896958607E-31, -1.000000000000000000, -1.224646799147353207E-16 ) ) ;
#119 = PLANE ( 'NONE',  #18 ) ;
#120 = AXIS2_PLACEMENT_3D ( 'NONE', #112, #221, #49 ) ;
#121 = CC_DESIGN_SECURITY_CLASSIFICATION ( #108, ( #63 ) ) ;
#122 = DIRECTION ( 'NONE',  ( 3.491481338843133355E-15, -1.237615716775288637E-16, 1.000000000000000000 ) ) ;
#123 = ORIENTED_EDGE ( 'NONE', *, *, #241, .F. ) ;
#124 = CALENDAR_DATE ( 2021, 17, 11 ) ;
#125 = ORIENTED_EDGE ( 'NONE', *, *, #67, .T. ) ;
#126 = PERSON_AND_ORGANIZATION_ROLE ( 'classification_officer' ) ;
#127 = AXIS2_PLACEMENT_3D ( 'NONE', #4, #223, #227 ) ;
#128 = DATE_AND_TIME ( #158, #185 ) ;
#129 = CONICAL_SURFACE ( 'NONE', #72, 5.000000000000000000, 0.7853981633974415066 ) ;
#130 = ADVANCED_FACE ( 'NONE', ( #138 ), #5, .F. ) ;
#131 = VERTEX_POINT ( 'NONE', #226 ) ;
#132 = VERTEX_POINT ( 'NONE', #173 ) ;
#133 = DIRECTION ( 'NONE',  ( -4.275831445896958607E-31, -1.000000000000000000, -1.224646799147353207E-16 ) ) ;
#134 = AXIS2_PLACEMENT_3D ( 'NONE', #61, #212, #197 ) ;
#135 = CARTESIAN_POINT ( 'NONE',  ( -1.068957861474239564E-30, 3.749399456654644020E-32, -3.061616997868383141E-16 ) ) ;
#136 = EDGE_LOOP ( 'NONE', ( #125 ) ) ;
#137 = CARTESIAN_POINT ( 'NONE',  ( 2.793185071074506684E-13, -9.797174393178826052E-15, 80.00000000000000000 ) ) ;
#138 = FACE_OUTER_BOUND ( 'NONE', #48, .T. ) ;
#139 = APPROVAL_PERSON_ORGANIZATION ( #46, #9, #199 ) ;
#140 = APPROVAL_STATUS ( 'not_yet_approved' ) ;
#141 = DIRECTION ( 'NONE',  ( -3.491481338843133355E-15, 1.224646799147353207E-16, -1.000000000000000000 ) ) ;
#142 = DATE_AND_TIME ( #124, #79 ) ;
#143 = CC_DESIGN_PERSON_AND_ORGANIZATION_ASSIGNMENT ( #230, #126, ( #108 ) ) ;
#144 = PERSON_AND_ORGANIZATION ( #71, #6 ) ;
#145 = ORIENTED_EDGE ( 'NONE', *, *, #163, .F. ) ;
#146 = PRODUCT_DEFINITION ( 'UNKNOWN', '', #63, #236 ) ;
#147 = CIRCLE ( 'NONE', #70, 4.405000000000001137 ) ;
#148 = ADVANCED_FACE ( 'NONE', ( #87 ), #83, .F. ) ;
#149 =( GEOMETRIC_REPRESENTATION_CONTEXT ( 3 ) GLOBAL_UNCERTAINTY_ASSIGNED_CONTEXT ( ( #206 ) ) GLOBAL_UNIT_ASSIGNED_CONTEXT ( ( #59, #239, #115 ) ) REPRESENTATION_CONTEXT ( 'NONE', 'WORKASPACE' ) );
#150 = DIRECTION ( 'NONE',  ( 3.491481338843133355E-15, -1.237615716775288637E-16, 1.000000000000000000 ) ) ;
#151 = DIRECTION ( 'NONE',  ( 0.0000000000000000000, 0.0000000000000000000, 1.000000000000000000 ) ) ;
#152 = EDGE_CURVE ( 'NONE', #15, #15, #189, .T. ) ;
#153 = AXIS2_PLACEMENT_3D ( 'NONE', #188, #150, #13 ) ;
#154 = DIRECTION ( 'NONE',  ( 0.0000000000000000000, 1.000000000000000000, 0.0000000000000000000 ) ) ;
#155 = PLANE ( 'NONE',  #167 ) ;
#156 = CARTESIAN_POINT ( 'NONE',  ( 2.793185071074506684E-14, -9.797174393178825657E-16, 8.000000000000000000 ) ) ;
#157 = ORIENTED_EDGE ( 'NONE', *, *, #152, .F. ) ;
#158 = CALENDAR_DATE ( 2021, 17, 11 ) ;
#159 = EDGE_LOOP ( 'NONE', ( #43 ) ) ;
#160 = PERSON_AND_ORGANIZATION ( #71, #6 ) ;
#161 = FACE_BOUND ( 'NONE', #28, .T. ) ;
#162 = DATE_AND_TIME ( #3, #169 ) ;
#163 = EDGE_CURVE ( 'NONE', #131, #131, #232, .T. ) ;
#164 = PERSON_AND_ORGANIZATION_ROLE ( 'creator' ) ;
#165 = ORIENTED_EDGE ( 'NONE', *, *, #111, .F. ) ;
#166 = ORIENTED_EDGE ( 'NONE', *, *, #180, .F. ) ;
#167 = AXIS2_PLACEMENT_3D ( 'NONE', #135, #58, #179 ) ;
#168 = DIRECTION ( 'NONE',  ( 0.0000000000000000000, 1.000000000000000000, 0.0000000000000000000 ) ) ;
#169 = LOCAL_TIME ( 13, 43, 7.000000000000000000, #103 ) ;
#170 = PRODUCT_RELATED_PRODUCT_CATEGORY ( 'detail', '', ( #32 ) ) ;
#171 = CYLINDRICAL_SURFACE ( 'NONE', #153, 4.405000000000001137 ) ;
#172 = EDGE_LOOP ( 'NONE', ( #166 ) ) ;
#173 = CARTESIAN_POINT ( 'NONE',  ( 1.153150260552205983E-13, 4.999999999999996447, 33.02753612695207863 ) ) ;
#174 = DIRECTION ( 'NONE',  ( 3.491481338843133355E-15, -1.237615716775288637E-16, 1.000000000000000000 ) ) ;
#175 = CARTESIAN_POINT ( 'NONE',  ( 1.153150260552205983E-13, -3.844139581335702696E-15, 33.02753612695207863 ) ) ;
#176 = DIRECTION ( 'NONE',  ( 0.0000000000000000000, 1.000000000000000000, 0.0000000000000000000 ) ) ;
#177 = COORDINATED_UNIVERSAL_TIME_OFFSET ( 1, 0, .AHEAD. ) ;
#178 = ORIENTED_EDGE ( 'NONE', *, *, #67, .F. ) ;
#179 = DIRECTION ( 'NONE',  ( 4.275831445896958607E-31, 1.000000000000000000, 1.224646799147353207E-16 ) ) ;
#180 = EDGE_CURVE ( 'NONE', #132, #132, #217, .T. ) ;
#181 = DATE_AND_TIME ( #23, #94 ) ;
#182 = MANIFOLD_SOLID_BREP ( 'Corps-Déplacer/Copier1[2]', #24 ) ;
#183 = ORIENTED_EDGE ( 'NONE', *, *, #152, .T. ) ;
#184 = MANIFOLD_SOLID_BREP ( 'Corps-Déplacer/Copier1[1]', #187 ) ;
#185 = LOCAL_TIME ( 13, 43, 7.000000000000000000, #82 ) ;
#186 = EDGE_LOOP ( 'NONE', ( #178 ) ) ;
#187 = CLOSED_SHELL ( 'NONE', ( #11, #92, #130, #220, #60, #148 ) ) ;
#188 = CARTESIAN_POINT ( 'NONE',  ( 0.0000000000000000000, 0.0000000000000000000, 0.0000000000000000000 ) ) ;
#189 = CIRCLE ( 'NONE', #201, 5.000000000000000000 ) ;
#190 = EDGE_LOOP ( 'NONE', ( #157 ) ) ;
#191 = FACE_OUTER_BOUND ( 'NONE', #186, .T. ) ;
#192 = FACE_OUTER_BOUND ( 'NONE', #190, .T. ) ;
#193 = CARTESIAN_POINT ( 'NONE',  ( 1.047444401652940007E-13, -4.405000000000004690, 30.00000000000000000 ) ) ;
#194 = DIRECTION ( 'NONE',  ( 4.275831445896958607E-31, 1.000000000000000000, 1.224646799147353207E-16 ) ) ;
#195 = CIRCLE ( 'NONE', #127, 4.405000000000001137 ) ;
#196 = CARTESIAN_POINT ( 'NONE',  ( 2.758270257686074972E-13, -9.674709713264089326E-15, 78.99999999999998579 ) ) ;
#197 = DIRECTION ( 'NONE',  ( 4.275831445896958607E-31, 1.000000000000000000, 1.224646799147353207E-16 ) ) ;
#198 = ORIENTED_EDGE ( 'NONE', *, *, #45, .T. ) ;
#199 = APPROVAL_ROLE ( '' ) ;
#200 = EDGE_LOOP ( 'NONE', ( #77 ) ) ;
#201 = AXIS2_PLACEMENT_3D ( 'NONE', #196, #39, #154 ) ;
#202 = PERSON_AND_ORGANIZATION ( #71, #6 ) ;
#203 = APPROVAL_PERSON_ORGANIZATION ( #42, #88, #107 ) ;
#204 = CC_DESIGN_APPROVAL ( #88, ( #63 ) ) ;
#205 = ADVANCED_BREP_SHAPE_REPRESENTATION ( '997928', ( #184, #182, #30 ), #149 ) ;
#206 = UNCERTAINTY_MEASURE_WITH_UNIT (LENGTH_MEASURE( 1.000000000000000082E-05 ), #59, 'distance_accuracy_value', 'NONE');
#207 = FACE_OUTER_BOUND ( 'NONE', #136, .T. ) ;
#208 = APPLICATION_PROTOCOL_DEFINITION ( 'international standard', 'config_control_design', 1994, #238 ) ;
#209 = FACE_OUTER_BOUND ( 'NONE', #172, .T. ) ;
#210 = CARTESIAN_POINT ( 'NONE',  ( 2.758270257686074972E-13, -9.674709713264089326E-15, 78.99999999999998579 ) ) ;
#211 = FACE_OUTER_BOUND ( 'NONE', #52, .T. ) ;
#212 = DIRECTION ( 'NONE',  ( -3.491481338843133355E-15, 1.224646799147353207E-16, -1.000000000000000000 ) ) ;
#213 = CIRCLE ( 'NONE', #86, 5.000000000000000000 ) ;
#214 = DATE_TIME_ROLE ( 'creation_date' ) ;
#215 = EDGE_LOOP ( 'NONE', ( #123 ) ) ;
#216 = COORDINATED_UNIVERSAL_TIME_OFFSET ( 1, 0, .AHEAD. ) ;
#217 = CIRCLE ( 'NONE', #91, 5.000000000000000000 ) ;
#218 = APPROVAL_STATUS ( 'not_yet_approved' ) ;
#219 = CC_DESIGN_PERSON_AND_ORGANIZATION_ASSIGNMENT ( #202, #228, ( #63 ) ) ;
#220 = ADVANCED_FACE ( 'NONE', ( #57, #191 ), #171, .T. ) ;
#221 = DIRECTION ( 'NONE',  ( -3.491481338843133355E-15, 1.224646799147353207E-16, -1.000000000000000000 ) ) ;
#222 = CYLINDRICAL_SURFACE ( 'NONE', #120, 5.000000000000000000 ) ;
#223 = DIRECTION ( 'NONE',  ( 3.491481338843133355E-15, -1.237615716775288637E-16, 1.000000000000000000 ) ) ;
#224 = ADVANCED_FACE ( 'NONE', ( #211, #98 ), #222, .T. ) ;
#225 = DIRECTION ( 'NONE',  ( -3.491481338843133355E-15, 1.224646799147353207E-16, -1.000000000000000000 ) ) ;
#226 = CARTESIAN_POINT ( 'NONE',  ( 2.793185071074506684E-13, 3.999999999999989786, 80.00000000000000000 ) ) ;
#227 = DIRECTION ( 'NONE',  ( 0.0000000000000000000, -1.000000000000000000, 0.0000000000000000000 ) ) ;
#228 = PERSON_AND_ORGANIZATION_ROLE ( 'design_supplier' ) ;
#229 = DIRECTION ( 'NONE',  ( -3.491481338843133355E-15, 1.224646799147353207E-16, -1.000000000000000000 ) ) ;
#230 = PERSON_AND_ORGANIZATION ( #71, #6 ) ;
#231 = PERSON_AND_ORGANIZATION ( #71, #6 ) ;
#232 = CIRCLE ( 'NONE', #84, 3.999999999999999112 ) ;
#233 = CC_DESIGN_PERSON_AND_ORGANIZATION_ASSIGNMENT ( #101, #1, ( #32 ) ) ;
#234 = TOROIDAL_SURFACE ( 'NONE', #53, 12.40499999999999936, 8.000000000000000000 ) ;
#235 = CARTESIAN_POINT ( 'NONE',  ( 0.0000000000000000000, 5.000000000000000000, 0.0000000000000000000 ) ) ;
#236 = DESIGN_CONTEXT ( 'detailed design', #56, 'design' ) ;
#237 = DIRECTION ( 'NONE',  ( -3.491481338843133355E-15, 1.224646799147353207E-16, -1.000000000000000000 ) ) ;
#238 = APPLICATION_CONTEXT ( 'configuration controlled 3d designs of mechanical parts and assemblies' ) ;
#239 =( NAMED_UNIT ( * ) PLANE_ANGLE_UNIT ( ) SI_UNIT ( $, .RADIAN. ) );
#240 = CARTESIAN_POINT ( 'NONE',  ( 2.793185071074506684E-14, -9.900925734202309095E-16, 8.000000000000000000 ) ) ;
#241 = EDGE_CURVE ( 'NONE', #34, #34, #213, .T. ) ;
#242 = VERTEX_POINT ( 'NONE', #235 ) ;
#243 = EDGE_LOOP ( 'NONE', ( #165 ) ) ;
ENDSEC;
END-ISO-10303-21;
