ISO-10303-21;
HEADER;
FILE_DESCRIPTION (( 'STEP AP203' ),
    '1' );
FILE_NAME ('997927.step',
    '2021-11-17T12:43:07',
    ( '' ),
    ( '' ),
    'SwSTEP 2.0',
    'SolidWorks 2019',
    '' );
FILE_SCHEMA (( 'CONFIG_CONTROL_DESIGN' ));
ENDSEC;

DATA;
#1 = FACE_OUTER_BOUND ( 'NONE', #115, .T. ) ;
#2 = DIRECTION ( 'NONE',  ( -4.321112179779889887E-31, -1.000000000000000000, -1.237615716775288390E-16 ) ) ;
#3 = DIRECTION ( 'NONE',  ( 3.491481338843133355E-15, -1.237615716775288637E-16, 1.000000000000000000 ) ) ;
#4 = AXIS2_PLACEMENT_3D ( 'NONE', #120, #212, #44 ) ;
#5 = CARTESIAN_POINT ( 'NONE',  ( 9.995638749205980063E-14, -4.042295605475670736E-15, 28.62864721057891515 ) ) ;
#6 = DIRECTION ( 'NONE',  ( 3.491481338843133355E-15, -1.237615716775288637E-16, 1.000000000000000000 ) ) ;
#7 = CARTESIAN_POINT ( 'NONE',  ( 2.234548056859604716E-14, -4.000000000000000888, 6.399999999999997691 ) ) ;
#8 = VERTEX_POINT ( 'NONE', #145 ) ;
#9 = PRODUCT_DEFINITION ( 'UNKNOWN', '', #171, #116 ) ;
#10 = PERSON_AND_ORGANIZATION ( #148, #56 ) ;
#11 = ORIENTED_EDGE ( 'NONE', *, *, #143, .F. ) ;
#12 = CIRCLE ( 'NONE', #133, 5.000000000000000000 ) ;
#13 = EDGE_CURVE ( 'NONE', #112, #112, #208, .T. ) ;
#14 = SHAPE_DEFINITION_REPRESENTATION ( #234, #110 ) ;
#15 = ORIENTED_EDGE ( 'NONE', *, *, #43, .F. ) ;
#16 = ORIENTED_EDGE ( 'NONE', *, *, #13, .F. ) ;
#17 = TOROIDAL_SURFACE ( 'NONE', #77, 11.52500000000000036, 8.000000000000000000 ) ;
#18 = EDGE_LOOP ( 'NONE', ( #220 ) ) ;
#19 = FACE_OUTER_BOUND ( 'NONE', #137, .T. ) ;
#20 = CARTESIAN_POINT ( 'NONE',  ( 2.234548056859605663E-14, 3.749399456654642925E-32, 6.400000000000001243 ) ) ;
#21 = AXIS2_PLACEMENT_3D ( 'NONE', #20, #101, #160 ) ;
#22 = LOCAL_TIME ( 13, 43, 7.000000000000000000, #36 ) ;
#23 = FACE_OUTER_BOUND ( 'NONE', #79, .T. ) ;
#24 = CC_DESIGN_PERSON_AND_ORGANIZATION_ASSIGNMENT ( #176, #47, ( #9 ) ) ;
#25 = CARTESIAN_POINT ( 'NONE',  ( 2.758270257686074972E-13, -9.674709713264089326E-15, 78.99999999999998579 ) ) ;
#26 = DIRECTION ( 'NONE',  ( 0.0000000000000000000, 0.0000000000000000000, 1.000000000000000000 ) ) ;
#27 = DIRECTION ( 'NONE',  ( 4.275831445896958607E-31, 1.000000000000000000, 1.224646799147353207E-16 ) ) ;
#28 = ADVANCED_FACE ( 'NONE', ( #42, #229 ), #189, .T. ) ;
#29 = FACE_OUTER_BOUND ( 'NONE', #59, .T. ) ;
#30 = CALENDAR_DATE ( 2021, 17, 11 ) ;
#31 = APPROVAL_ROLE ( '' ) ;
#32 = APPROVAL_STATUS ( 'not_yet_approved' ) ;
#33 = CC_DESIGN_PERSON_AND_ORGANIZATION_ASSIGNMENT ( #183, #180, ( #134 ) ) ;
#34 = CIRCLE ( 'NONE', #168, 4.000000000000000000 ) ;
#35 = LOCAL_TIME ( 13, 43, 7.000000000000000000, #242 ) ;
#36 = COORDINATED_UNIVERSAL_TIME_OFFSET ( 1, 0, .AHEAD. ) ;
#37 = EDGE_LOOP ( 'NONE', ( #173 ) ) ;
#38 = ORIENTED_EDGE ( 'NONE', *, *, #78, .F. ) ;
#39 = CIRCLE ( 'NONE', #201, 5.000000000000000000 ) ;
#40 = PLANE ( 'NONE',  #130 ) ;
#41 = CARTESIAN_POINT ( 'NONE',  ( 8.379555213223520053E-14, -2.970277720260692728E-15, 24.00000000000000000 ) ) ;
#42 = FACE_OUTER_BOUND ( 'NONE', #37, .T. ) ;
#43 = EDGE_CURVE ( 'NONE', #109, #109, #12, .T. ) ;
#44 = DIRECTION ( 'NONE',  ( 0.0000000000000000000, -1.000000000000000000, -2.460600675144406772E-16 ) ) ;
#45 = FACE_OUTER_BOUND ( 'NONE', #18, .T. ) ;
#46 = DIRECTION ( 'NONE',  ( 3.491481338843133355E-15, -1.224646799147353207E-16, 1.000000000000000000 ) ) ;
#47 = PERSON_AND_ORGANIZATION_ROLE ( 'creator' ) ;
#48 = CALENDAR_DATE ( 2021, 17, 11 ) ;
#49 = APPLICATION_CONTEXT ( 'configuration controlled 3d designs of mechanical parts and assemblies' ) ;
#50 =( NAMED_UNIT ( * ) SI_UNIT ( $, .STERADIAN. ) SOLID_ANGLE_UNIT ( ) );
#51 = AXIS2_PLACEMENT_3D ( 'NONE', #41, #213, #186 ) ;
#52 = COORDINATED_UNIVERSAL_TIME_OFFSET ( 1, 0, .AHEAD. ) ;
#53 = PERSON_AND_ORGANIZATION_ROLE ( 'creator' ) ;
#54 = EDGE_LOOP ( 'NONE', ( #94 ) ) ;
#55 = EDGE_LOOP ( 'NONE', ( #74 ) ) ;
#56 = ORGANIZATION ( 'UNSPECIFIED', 'UNSPECIFIED', '' ) ;
#57 = EDGE_LOOP ( 'NONE', ( #181 ) ) ;
#58 = APPROVAL_ROLE ( '' ) ;
#59 = EDGE_LOOP ( 'NONE', ( #15 ) ) ;
#60 = EDGE_CURVE ( 'NONE', #194, #194, #224, .T. ) ;
#61 = PLANE ( 'NONE',  #170 ) ;
#62 = CARTESIAN_POINT ( 'NONE',  ( 2.793185071074506684E-13, -9.797174393178826052E-15, 80.00000000000000000 ) ) ;
#63 = DIRECTION ( 'NONE',  ( 4.275831445896958607E-31, 1.000000000000000000, 1.224646799147353207E-16 ) ) ;
#64 = FACE_OUTER_BOUND ( 'NONE', #184, .T. ) ;
#65 = AXIS2_PLACEMENT_3D ( 'NONE', #119, #46, #81 ) ;
#66 = PERSON_AND_ORGANIZATION ( #148, #56 ) ;
#67 = DIRECTION ( 'NONE',  ( -4.429917483352783366E-31, -1.000000000000000000, -1.237615716775288637E-16 ) ) ;
#68 = FACE_OUTER_BOUND ( 'NONE', #54, .T. ) ;
#69 = AXIS2_PLACEMENT_3D ( 'NONE', #169, #3, #82 ) ;
#70 = LOCAL_TIME ( 13, 43, 7.000000000000000000, #52 ) ;
#71 =( NAMED_UNIT ( * ) PLANE_ANGLE_UNIT ( ) SI_UNIT ( $, .RADIAN. ) );
#72 = CARTESIAN_POINT ( 'NONE',  ( 2.758270257686074972E-13, 4.999999999999990230, 78.99999999999998579 ) ) ;
#73 = DATE_TIME_ROLE ( 'creation_date' ) ;
#74 = ORIENTED_EDGE ( 'NONE', *, *, #241, .F. ) ;
#75 = PERSON_AND_ORGANIZATION ( #148, #56 ) ;
#76 = DATE_AND_TIME ( #222, #22 ) ;
#77 = AXIS2_PLACEMENT_3D ( 'NONE', #175, #235, #67 ) ;
#78 = EDGE_CURVE ( 'NONE', #162, #162, #34, .T. ) ;
#79 = EDGE_LOOP ( 'NONE', ( #16 ) ) ;
#80 = DIRECTION ( 'NONE',  ( -7.703719777548943412E-31, -1.000000000000000000, -2.168404344971008868E-16 ) ) ;
#81 = DIRECTION ( 'NONE',  ( -4.275831445896958607E-31, -1.000000000000000000, -1.224646799147353207E-16 ) ) ;
#82 = DIRECTION ( 'NONE',  ( -4.321112179779889011E-31, -1.000000000000000000, -1.237615716775288637E-16 ) ) ;
#83 = APPROVAL ( #195, 'UNSPECIFIED' ) ;
#84 = AXIS2_PLACEMENT_3D ( 'NONE', #140, #158, #2 ) ;
#85 = FACE_OUTER_BOUND ( 'NONE', #95, .T. ) ;
#86 = DIRECTION ( 'NONE',  ( 3.491481338843133355E-15, -1.237615716775288637E-16, 1.000000000000000000 ) ) ;
#87 = AXIS2_PLACEMENT_3D ( 'NONE', #159, #144, #63 ) ;
#88 = DIRECTION ( 'NONE',  ( 0.0000000000000000000, 1.000000000000000000, 0.0000000000000000000 ) ) ;
#89 = APPROVAL_ROLE ( '' ) ;
#90 = VERTEX_POINT ( 'NONE', #128 ) ;
#91 = APPROVAL_PERSON_ORGANIZATION ( #10, #177, #58 ) ;
#92 =( LENGTH_UNIT ( ) NAMED_UNIT ( * ) SI_UNIT ( .MILLI., .METRE. ) );
#93 = CLOSED_SHELL ( 'NONE', ( #127, #188, #204, #28, #210, #99 ) ) ;
#94 = ORIENTED_EDGE ( 'NONE', *, *, #143, .T. ) ;
#95 = EDGE_LOOP ( 'NONE', ( #226 ) ) ;
#96 = AXIS2_PLACEMENT_3D ( 'NONE', #62, #157, #190 ) ;
#97 = CALENDAR_DATE ( 2021, 17, 11 ) ;
#98 = DIRECTION ( 'NONE',  ( 0.0000000000000000000, 1.000000000000000000, 0.0000000000000000000 ) ) ;
#99 = ADVANCED_FACE ( 'NONE', ( #23 ), #211, .F. ) ;
#100 = CYLINDRICAL_SURFACE ( 'NONE', #69, 4.000000000000000000 ) ;
#101 = DIRECTION ( 'NONE',  ( 3.491481338843133355E-15, -1.224646799147353207E-16, 1.000000000000000000 ) ) ;
#102 = AXIS2_PLACEMENT_3D ( 'NONE', #228, #6, #141 ) ;
#103 = APPROVAL_PERSON_ORGANIZATION ( #198, #214, #31 ) ;
#104 = CARTESIAN_POINT ( 'NONE',  ( 2.234548056859605032E-14, -7.920740587361845106E-16, 6.399999999999998579 ) ) ;
#105 = DIRECTION ( 'NONE',  ( -3.491481338843133355E-15, 1.224646799147353207E-16, -1.000000000000000000 ) ) ;
#106 = LOCAL_TIME ( 13, 43, 7.000000000000000000, #218 ) ;
#107 = APPLICATION_PROTOCOL_DEFINITION ( 'international standard', 'config_control_design', 1994, #108 ) ;
#108 = APPLICATION_CONTEXT ( 'configuration controlled 3d designs of mechanical parts and assemblies' ) ;
#109 = VERTEX_POINT ( 'NONE', #196 ) ;
#110 = ADVANCED_BREP_SHAPE_REPRESENTATION ( '997927', ( #193, #117, #152 ), #161 ) ;
#111 = DATE_AND_TIME ( #48, #106 ) ;
#112 = VERTEX_POINT ( 'NONE', #174 ) ;
#113 = DATE_AND_TIME ( #30, #70 ) ;
#114 = CC_DESIGN_PERSON_AND_ORGANIZATION_ASSIGNMENT ( #75, #53, ( #171 ) ) ;
#115 = EDGE_LOOP ( 'NONE', ( #205 ) ) ;
#116 = DESIGN_CONTEXT ( 'detailed design', #49, 'design' ) ;
#117 = MANIFOLD_SOLID_BREP ( 'Corps-Déplacer/Copier1[2]', #125 ) ;
#118 = DIRECTION ( 'NONE',  ( 4.275831445896958607E-31, 1.000000000000000000, 1.224646799147353207E-16 ) ) ;
#119 = CARTESIAN_POINT ( 'NONE',  ( 2.234548056859605663E-14, 3.749399456654642925E-32, 6.400000000000001243 ) ) ;
#120 = CARTESIAN_POINT ( 'NONE',  ( 2.234548056859605032E-14, -7.920740587361845106E-16, 6.399999999999998579 ) ) ;
#121 = FACE_OUTER_BOUND ( 'NONE', #57, .T. ) ;
#122 = DIRECTION ( 'NONE',  ( 3.491481338843133355E-15, -1.237615716775288637E-16, 1.000000000000000000 ) ) ;
#123 = ADVANCED_FACE ( 'NONE', ( #1 ), #61, .T. ) ;
#124 = DIRECTION ( 'NONE',  ( -3.491481338843133355E-15, 1.224646799147353207E-16, -1.000000000000000000 ) ) ;
#125 = CLOSED_SHELL ( 'NONE', ( #172, #146, #123 ) ) ;
#126 = PERSON_AND_ORGANIZATION_ROLE ( 'design_owner' ) ;
#127 = ADVANCED_FACE ( 'NONE', ( #64, #85 ), #230, .T. ) ;
#128 = CARTESIAN_POINT ( 'NONE',  ( -7.732721189720870867E-30, -4.000000000000000888, -2.214739372567583969E-15 ) ) ;
#129 = DATE_AND_TIME ( #178, #216 ) ;
#130 = AXIS2_PLACEMENT_3D ( 'NONE', #187, #215, #27 ) ;
#131 = SECURITY_CLASSIFICATION_LEVEL ( 'unclassified' ) ;
#132 = PRODUCT_RELATED_PRODUCT_CATEGORY ( 'detail', '', ( #236 ) ) ;
#133 = AXIS2_PLACEMENT_3D ( 'NONE', #5, #122, #98 ) ;
#134 = SECURITY_CLASSIFICATION ( '', '', #131 ) ;
#135 = EDGE_LOOP ( 'NONE', ( #11 ) ) ;
#136 = APPROVAL_DATE_TIME ( #243, #177 ) ;
#137 = EDGE_LOOP ( 'NONE', ( #38 ) ) ;
#138 = DIRECTION ( 'NONE',  ( 0.0000000000000000000, 1.000000000000000000, 0.0000000000000000000 ) ) ;
#139 = ORIENTED_EDGE ( 'NONE', *, *, #241, .T. ) ;
#140 = CARTESIAN_POINT ( 'NONE',  ( -6.004276317808914561E-30, 2.128319191086999083E-31, -1.719693085857468711E-15 ) ) ;
#141 = DIRECTION ( 'NONE',  ( -4.321112179779889011E-31, -1.000000000000000000, -1.237615716775288637E-16 ) ) ;
#142 = PLANE ( 'NONE',  #65 ) ;
#143 = EDGE_CURVE ( 'NONE', #8, #8, #156, .T. ) ;
#144 = DIRECTION ( 'NONE',  ( -3.491481338843133355E-15, 1.224646799147353207E-16, -1.000000000000000000 ) ) ;
#145 = CARTESIAN_POINT ( 'NONE',  ( 8.379555213223520053E-14, -3.525000000000003908, 24.00000000000000000 ) ) ;
#146 = ADVANCED_FACE ( 'NONE', ( #45, #19 ), #100, .T. ) ;
#147 = CARTESIAN_POINT ( 'NONE',  ( 2.758270257686074972E-13, -9.674709713264089326E-15, 78.99999999999998579 ) ) ;
#148 = PERSON ( 'UNSPECIFIED', 'UNSPECIFIED', 'UNSPECIFIED', ('UNSPECIFIED'), ('UNSPECIFIED'), ('UNSPECIFIED') ) ;
#149 = PERSON_AND_ORGANIZATION ( #148, #56 ) ;
#150 = MECHANICAL_CONTEXT ( 'NONE', #108, 'mechanical' ) ;
#151 = CC_DESIGN_DATE_AND_TIME_ASSIGNMENT ( #76, #200, ( #134 ) ) ;
#152 = AXIS2_PLACEMENT_3D ( 'NONE', #164, #26, #217 ) ;
#153 = EDGE_LOOP ( 'NONE', ( #203 ) ) ;
#154 = PERSON_AND_ORGANIZATION ( #148, #56 ) ;
#155 = ORIENTED_EDGE ( 'NONE', *, *, #60, .T. ) ;
#156 = CIRCLE ( 'NONE', #51, 3.525000000000000799 ) ;
#157 = DIRECTION ( 'NONE',  ( -3.491481338843133355E-15, 1.224646799147353207E-16, -1.000000000000000000 ) ) ;
#158 = DIRECTION ( 'NONE',  ( 3.491481338843133355E-15, -1.237615716775288637E-16, 1.000000000000000000 ) ) ;
#159 = CARTESIAN_POINT ( 'NONE',  ( 0.0000000000000000000, 0.0000000000000000000, 0.0000000000000000000 ) ) ;
#160 = DIRECTION ( 'NONE',  ( -4.275831445896958607E-31, -1.000000000000000000, -1.224646799147353207E-16 ) ) ;
#161 =( GEOMETRIC_REPRESENTATION_CONTEXT ( 3 ) GLOBAL_UNCERTAINTY_ASSIGNED_CONTEXT ( ( #206 ) ) GLOBAL_UNIT_ASSIGNED_CONTEXT ( ( #92, #71, #50 ) ) REPRESENTATION_CONTEXT ( 'NONE', 'WORKASPACE' ) );
#162 = VERTEX_POINT ( 'NONE', #7 ) ;
#163 = APPROVAL_DATE_TIME ( #111, #83 ) ;
#164 = CARTESIAN_POINT ( 'NONE',  ( 0.0000000000000000000, 0.0000000000000000000, 0.0000000000000000000 ) ) ;
#165 = CONICAL_SURFACE ( 'NONE', #240, 5.000000000000000000, 0.7853981633974415066 ) ;
#166 = APPLICATION_PROTOCOL_DEFINITION ( 'international standard', 'config_control_design', 1994, #49 ) ;
#167 = EDGE_CURVE ( 'NONE', #90, #90, #233, .T. ) ;
#168 = AXIS2_PLACEMENT_3D ( 'NONE', #104, #86, #80 ) ;
#169 = CARTESIAN_POINT ( 'NONE',  ( 0.0000000000000000000, 0.0000000000000000000, 0.0000000000000000000 ) ) ;
#170 = AXIS2_PLACEMENT_3D ( 'NONE', #231, #209, #118 ) ;
#171 = PRODUCT_DEFINITION_FORMATION_WITH_SPECIFIED_SOURCE ( 'ANY', '', #236, .NOT_KNOWN. ) ;
#172 = ADVANCED_FACE ( 'NONE', ( #121 ), #142, .T. ) ;
#173 = ORIENTED_EDGE ( 'NONE', *, *, #13, .T. ) ;
#174 = CARTESIAN_POINT ( 'NONE',  ( 2.234548056859605032E-14, -3.525000000000001688, 6.399999999999997691 ) ) ;
#175 = CARTESIAN_POINT ( 'NONE',  ( 8.379555213223520053E-14, -3.469446951953614189E-15, 24.00000000000000000 ) ) ;
#176 = PERSON_AND_ORGANIZATION ( #148, #56 ) ;
#177 = APPROVAL ( #32, 'UNSPECIFIED' ) ;
#178 = CALENDAR_DATE ( 2021, 17, 11 ) ;
#179 = APPROVAL_DATE_TIME ( #113, #214 ) ;
#180 = PERSON_AND_ORGANIZATION_ROLE ( 'classification_officer' ) ;
#181 = ORIENTED_EDGE ( 'NONE', *, *, #78, .T. ) ;
#182 = CC_DESIGN_APPROVAL ( #83, ( #9 ) ) ;
#183 = PERSON_AND_ORGANIZATION ( #148, #56 ) ;
#184 = EDGE_LOOP ( 'NONE', ( #139 ) ) ;
#185 = CC_DESIGN_PERSON_AND_ORGANIZATION_ASSIGNMENT ( #154, #221, ( #171 ) ) ;
#186 = DIRECTION ( 'NONE',  ( 0.0000000000000000000, -1.000000000000000000, 0.0000000000000000000 ) ) ;
#187 = CARTESIAN_POINT ( 'NONE',  ( 2.793185071074506684E-13, 2.999519565323700436E-32, 80.00000000000000000 ) ) ;
#188 = ADVANCED_FACE ( 'NONE', ( #192, #227 ), #165, .T. ) ;
#189 = CYLINDRICAL_SURFACE ( 'NONE', #102, 3.525000000000000799 ) ;
#190 = DIRECTION ( 'NONE',  ( 0.0000000000000000000, 1.000000000000000000, 0.0000000000000000000 ) ) ;
#191 = CC_DESIGN_APPROVAL ( #177, ( #134 ) ) ;
#192 = FACE_BOUND ( 'NONE', #223, .T. ) ;
#193 = MANIFOLD_SOLID_BREP ( 'Corps-Déplacer/Copier1[1]', #93 ) ;
#194 = VERTEX_POINT ( 'NONE', #239 ) ;
#195 = APPROVAL_STATUS ( 'not_yet_approved' ) ;
#196 = CARTESIAN_POINT ( 'NONE',  ( 9.995638749205980063E-14, 4.999999999999995559, 28.62864721057891515 ) ) ;
#197 = COORDINATED_UNIVERSAL_TIME_OFFSET ( 1, 0, .AHEAD. ) ;
#198 = PERSON_AND_ORGANIZATION ( #148, #56 ) ;
#199 = APPROVAL_STATUS ( 'not_yet_approved' ) ;
#200 = DATE_TIME_ROLE ( 'classification_date' ) ;
#201 = AXIS2_PLACEMENT_3D ( 'NONE', #147, #124, #88 ) ;
#202 = CC_DESIGN_SECURITY_CLASSIFICATION ( #134, ( #171 ) ) ;
#203 = ORIENTED_EDGE ( 'NONE', *, *, #60, .F. ) ;
#204 = ADVANCED_FACE ( 'NONE', ( #207 ), #40, .F. ) ;
#205 = ORIENTED_EDGE ( 'NONE', *, *, #167, .F. ) ;
#206 = UNCERTAINTY_MEASURE_WITH_UNIT (LENGTH_MEASURE( 1.000000000000000082E-05 ), #92, 'distance_accuracy_value', 'NONE');
#207 = FACE_OUTER_BOUND ( 'NONE', #153, .T. ) ;
#208 = CIRCLE ( 'NONE', #4, 3.525000000000000799 ) ;
#209 = DIRECTION ( 'NONE',  ( -3.491481338843133355E-15, 1.224646799147353207E-16, -1.000000000000000000 ) ) ;
#210 = ADVANCED_FACE ( 'NONE', ( #29, #68 ), #17, .F. ) ;
#211 = PLANE ( 'NONE',  #21 ) ;
#212 = DIRECTION ( 'NONE',  ( 3.491481338843133355E-15, -1.237615716775288637E-16, 1.000000000000000000 ) ) ;
#213 = DIRECTION ( 'NONE',  ( 3.491481338843133355E-15, -1.237615716775288637E-16, 1.000000000000000000 ) ) ;
#214 = APPROVAL ( #199, 'UNSPECIFIED' ) ;
#215 = DIRECTION ( 'NONE',  ( -3.491481338843133355E-15, 1.224646799147353207E-16, -1.000000000000000000 ) ) ;
#216 = LOCAL_TIME ( 13, 43, 7.000000000000000000, #197 ) ;
#217 = DIRECTION ( 'NONE',  ( 1.000000000000000000, 0.0000000000000000000, 0.0000000000000000000 ) ) ;
#218 = COORDINATED_UNIVERSAL_TIME_OFFSET ( 1, 0, .AHEAD. ) ;
#219 = APPROVAL_PERSON_ORGANIZATION ( #66, #83, #89 ) ;
#220 = ORIENTED_EDGE ( 'NONE', *, *, #167, .T. ) ;
#221 = PERSON_AND_ORGANIZATION_ROLE ( 'design_supplier' ) ;
#222 = CALENDAR_DATE ( 2021, 17, 11 ) ;
#223 = EDGE_LOOP ( 'NONE', ( #155 ) ) ;
#224 = CIRCLE ( 'NONE', #96, 3.999999999999999112 ) ;
#225 = CC_DESIGN_DATE_AND_TIME_ASSIGNMENT ( #129, #73, ( #9 ) ) ;
#226 = ORIENTED_EDGE ( 'NONE', *, *, #43, .T. ) ;
#227 = FACE_OUTER_BOUND ( 'NONE', #55, .T. ) ;
#228 = CARTESIAN_POINT ( 'NONE',  ( 0.0000000000000000000, 0.0000000000000000000, 0.0000000000000000000 ) ) ;
#229 = FACE_OUTER_BOUND ( 'NONE', #135, .T. ) ;
#230 = CYLINDRICAL_SURFACE ( 'NONE', #87, 5.000000000000000000 ) ;
#231 = CARTESIAN_POINT ( 'NONE',  ( -1.068957861474239564E-30, 3.749399456654644020E-32, -3.061616997868383141E-16 ) ) ;
#232 = CC_DESIGN_PERSON_AND_ORGANIZATION_ASSIGNMENT ( #149, #126, ( #236 ) ) ;
#233 = CIRCLE ( 'NONE', #84, 4.000000000000000888 ) ;
#234 = PRODUCT_DEFINITION_SHAPE ( 'NONE', 'NONE',  #9 ) ;
#235 = DIRECTION ( 'NONE',  ( 3.491481338843133355E-15, -1.237615716775288637E-16, 1.000000000000000000 ) ) ;
#236 = PRODUCT ( '997927', '997927', '', ( #150 ) ) ;
#237 = VERTEX_POINT ( 'NONE', #72 ) ;
#238 = CC_DESIGN_APPROVAL ( #214, ( #171 ) ) ;
#239 = CARTESIAN_POINT ( 'NONE',  ( 2.793185071074506684E-13, 3.999999999999989786, 80.00000000000000000 ) ) ;
#240 = AXIS2_PLACEMENT_3D ( 'NONE', #25, #105, #138 ) ;
#241 = EDGE_CURVE ( 'NONE', #237, #237, #39, .T. ) ;
#242 = COORDINATED_UNIVERSAL_TIME_OFFSET ( 1, 0, .AHEAD. ) ;
#243 = DATE_AND_TIME ( #97, #35 ) ;
ENDSEC;
END-ISO-10303-21;
