ISO-10303-21;
HEADER;
FILE_DESCRIPTION (( 'STEP AP203' ),
    '1' );
FILE_NAME ('997926.step',
    '2021-11-17T12:43:06',
    ( '' ),
    ( '' ),
    'SwSTEP 2.0',
    'SolidWorks 2019',
    '' );
FILE_SCHEMA (( 'CONFIG_CONTROL_DESIGN' ));
ENDSEC;

DATA;
#1 = DIRECTION ( 'NONE',  ( -4.321112179779888136E-31, -1.000000000000000000, -1.237615716775288637E-16 ) ) ;
#2 = DIRECTION ( 'NONE',  ( 4.275831445896958607E-31, 1.000000000000000000, 1.224646799147353207E-16 ) ) ;
#3 = COORDINATED_UNIVERSAL_TIME_OFFSET ( 1, 0, .AHEAD. ) ;
#4 = DIRECTION ( 'NONE',  ( 3.491481338843133355E-15, -1.237615716775288637E-16, 1.000000000000000000 ) ) ;
#5 = DIRECTION ( 'NONE',  ( -3.491481338843133355E-15, 1.224646799147353207E-16, -1.000000000000000000 ) ) ;
#6 = CARTESIAN_POINT ( 'NONE',  ( 0.0000000000000000000, 0.0000000000000000000, 0.0000000000000000000 ) ) ;
#7 = DIRECTION ( 'NONE',  ( 4.275831445896958607E-31, 1.000000000000000000, 1.224646799147353207E-16 ) ) ;
#8 = CARTESIAN_POINT ( 'NONE',  ( 1.675911042644703064E-14, -2.650000000000000799, 4.799999999999998046 ) ) ;
#9 = PLANE ( 'NONE',  #129 ) ;
#10 = APPROVAL_STATUS ( 'not_yet_approved' ) ;
#11 = MANIFOLD_SOLID_BREP ( 'Corps-Déplacer/Copier1[2]', #215 ) ;
#12 =( GEOMETRIC_REPRESENTATION_CONTEXT ( 3 ) GLOBAL_UNCERTAINTY_ASSIGNED_CONTEXT ( ( #149 ) ) GLOBAL_UNIT_ASSIGNED_CONTEXT ( ( #177, #24, #50 ) ) REPRESENTATION_CONTEXT ( 'NONE', 'WORKASPACE' ) );
#13 = PERSON_AND_ORGANIZATION_ROLE ( 'creator' ) ;
#14 = ORIENTED_EDGE ( 'NONE', *, *, #143, .F. ) ;
#15 = ADVANCED_FACE ( 'NONE', ( #41, #40 ), #93, .F. ) ;
#16 = EDGE_LOOP ( 'NONE', ( #14 ) ) ;
#17 = APPROVAL_DATE_TIME ( #92, #28 ) ;
#18 = ORIENTED_EDGE ( 'NONE', *, *, #113, .F. ) ;
#19 = FACE_OUTER_BOUND ( 'NONE', #202, .T. ) ;
#20 = FACE_OUTER_BOUND ( 'NONE', #55, .T. ) ;
#21 = DATE_AND_TIME ( #197, #203 ) ;
#22 = FACE_OUTER_BOUND ( 'NONE', #243, .T. ) ;
#23 = LOCAL_TIME ( 13, 43, 6.000000000000000000, #29 ) ;
#24 =( NAMED_UNIT ( * ) PLANE_ANGLE_UNIT ( ) SI_UNIT ( $, .RADIAN. ) );
#25 = DIRECTION ( 'NONE',  ( 0.0000000000000000000, 1.000000000000000000, 0.0000000000000000000 ) ) ;
#26 = PRODUCT_DEFINITION ( 'UNKNOWN', '', #189, #109 ) ;
#27 = DIRECTION ( 'NONE',  ( -4.321112179779889011E-31, -1.000000000000000000, -1.237615716775288637E-16 ) ) ;
#28 = APPROVAL ( #10, 'UNSPECIFIED' ) ;
#29 = COORDINATED_UNIVERSAL_TIME_OFFSET ( 1, 0, .AHEAD. ) ;
#30 = DIRECTION ( 'NONE',  ( 0.0000000000000000000, 1.000000000000000000, 0.0000000000000000000 ) ) ;
#31 = VERTEX_POINT ( 'NONE', #107 ) ;
#32 = EDGE_CURVE ( 'NONE', #193, #193, #131, .T. ) ;
#33 = CC_DESIGN_DATE_AND_TIME_ASSIGNMENT ( #72, #108, ( #45 ) ) ;
#34 = ORIENTED_EDGE ( 'NONE', *, *, #133, .F. ) ;
#35 = AXIS2_PLACEMENT_3D ( 'NONE', #191, #115, #136 ) ;
#36 = ADVANCED_FACE ( 'NONE', ( #80, #20 ), #210, .T. ) ;
#37 = EDGE_LOOP ( 'NONE', ( #185 ) ) ;
#38 = CC_DESIGN_APPROVAL ( #188, ( #189 ) ) ;
#39 = EDGE_LOOP ( 'NONE', ( #240 ) ) ;
#40 = FACE_OUTER_BOUND ( 'NONE', #90, .T. ) ;
#41 = FACE_OUTER_BOUND ( 'NONE', #187, .T. ) ;
#42 = DATE_AND_TIME ( #225, #23 ) ;
#43 = ADVANCED_FACE ( 'NONE', ( #22, #171 ), #209, .T. ) ;
#44 = CARTESIAN_POINT ( 'NONE',  ( 0.0000000000000000000, 0.0000000000000000000, 0.0000000000000000000 ) ) ;
#45 = SECURITY_CLASSIFICATION ( '', '', #201 ) ;
#46 = DIRECTION ( 'NONE',  ( 1.000000000000000000, 0.0000000000000000000, 0.0000000000000000000 ) ) ;
#47 = DIRECTION ( 'NONE',  ( 0.0000000000000000000, -1.000000000000000000, 0.0000000000000000000 ) ) ;
#48 = APPROVAL_STATUS ( 'not_yet_approved' ) ;
#49 = CARTESIAN_POINT ( 'NONE',  ( 1.675911042644703064E-14, -5.940555440521383090E-16, 4.799999999999998046 ) ) ;
#50 =( NAMED_UNIT ( * ) SI_UNIT ( $, .STERADIAN. ) SOLID_ANGLE_UNIT ( ) );
#51 = PRODUCT ( '997926', '997926', '', ( #141 ) ) ;
#52 = AXIS2_PLACEMENT_3D ( 'NONE', #96, #4, #119 ) ;
#53 = APPLICATION_CONTEXT ( 'configuration controlled 3d designs of mechanical parts and assemblies' ) ;
#54 = APPROVAL_PERSON_ORGANIZATION ( #64, #139, #192 ) ;
#55 = EDGE_LOOP ( 'NONE', ( #221 ) ) ;
#56 = EDGE_LOOP ( 'NONE', ( #239 ) ) ;
#57 = APPROVAL_PERSON_ORGANIZATION ( #145, #28, #71 ) ;
#58 = DIRECTION ( 'NONE',  ( 3.491481338843133355E-15, -1.237615716775288637E-16, 1.000000000000000000 ) ) ;
#59 = CARTESIAN_POINT ( 'NONE',  ( -4.716998810651533414E-30, 1.672021499621414934E-31, -1.351002154350469157E-15 ) ) ;
#60 = PERSON_AND_ORGANIZATION ( #182, #163 ) ;
#61 = DIRECTION ( 'NONE',  ( 0.0000000000000000000, 1.000000000000000000, 0.0000000000000000000 ) ) ;
#62 = VERTEX_POINT ( 'NONE', #67 ) ;
#63 = DIRECTION ( 'NONE',  ( -3.491481338843133355E-15, 1.224646799147353207E-16, -1.000000000000000000 ) ) ;
#64 = PERSON_AND_ORGANIZATION ( #182, #163 ) ;
#65 = DIRECTION ( 'NONE',  ( 3.491481338843133355E-15, -1.237615716775288637E-16, 1.000000000000000000 ) ) ;
#66 = VERTEX_POINT ( 'NONE', #8 ) ;
#67 = CARTESIAN_POINT ( 'NONE',  ( 2.171701392760429073E-13, 3.999999999999989786, 62.20000000000000284 ) ) ;
#68 = AXIS2_PLACEMENT_3D ( 'NONE', #170, #65, #61 ) ;
#69 = ADVANCED_BREP_SHAPE_REPRESENTATION ( '997926', ( #89, #11, #132 ), #12 ) ;
#70 = AXIS2_PLACEMENT_3D ( 'NONE', #229, #5, #159 ) ;
#71 = APPROVAL_ROLE ( '' ) ;
#72 = DATE_AND_TIME ( #236, #75 ) ;
#73 = CC_DESIGN_PERSON_AND_ORGANIZATION_ASSIGNMENT ( #83, #233, ( #51 ) ) ;
#74 = CC_DESIGN_PERSON_AND_ORGANIZATION_ASSIGNMENT ( #130, #161, ( #189 ) ) ;
#75 = LOCAL_TIME ( 13, 43, 6.000000000000000000, #237 ) ;
#76 = EDGE_CURVE ( 'NONE', #101, #101, #220, .T. ) ;
#77 = ORIENTED_EDGE ( 'NONE', *, *, #241, .F. ) ;
#78 = CARTESIAN_POINT ( 'NONE',  ( 2.171701392760429073E-13, -7.617303090696536944E-15, 62.20000000000000284 ) ) ;
#79 = CC_DESIGN_SECURITY_CLASSIFICATION ( #45, ( #189 ) ) ;
#80 = FACE_OUTER_BOUND ( 'NONE', #37, .T. ) ;
#81 = ADVANCED_FACE ( 'NONE', ( #176 ), #100, .F. ) ;
#82 = DIRECTION ( 'NONE',  ( 3.491481338843133355E-15, -1.237615716775288637E-16, 1.000000000000000000 ) ) ;
#83 = PERSON_AND_ORGANIZATION ( #182, #163 ) ;
#84 = CARTESIAN_POINT ( 'NONE',  ( 1.675911042644703695E-14, 2.999519565323713574E-32, 4.799999999999999822 ) ) ;
#85 = DIRECTION ( 'NONE',  ( -3.491481338843133355E-15, 1.224646799147353207E-16, -1.000000000000000000 ) ) ;
#86 = DIRECTION ( 'NONE',  ( -3.491481338843133355E-15, 1.224646799147353207E-16, -1.000000000000000000 ) ) ;
#87 = ADVANCED_FACE ( 'NONE', ( #103 ), #153, .T. ) ;
#88 = APPROVAL_DATE_TIME ( #183, #188 ) ;
#89 = MANIFOLD_SOLID_BREP ( 'Corps-Déplacer/Copier1[1]', #167 ) ;
#90 = EDGE_LOOP ( 'NONE', ( #166 ) ) ;
#91 = CC_DESIGN_PERSON_AND_ORGANIZATION_ASSIGNMENT ( #156, #154, ( #26 ) ) ;
#92 = DATE_AND_TIME ( #217, #231 ) ;
#93 = TOROIDAL_SURFACE ( 'NONE', #35, 10.65000000000000036, 8.000000000000000000 ) ;
#94 = AXIS2_PLACEMENT_3D ( 'NONE', #84, #142, #114 ) ;
#95 = CARTESIAN_POINT ( 'NONE',  ( 2.171701392760429073E-13, -7.617303090696536944E-15, 62.20000000000000284 ) ) ;
#96 = CARTESIAN_POINT ( 'NONE',  ( 1.675911042644703064E-14, -5.940555440521383090E-16, 4.799999999999998046 ) ) ;
#97 = APPROVAL_DATE_TIME ( #21, #139 ) ;
#98 = AXIS2_PLACEMENT_3D ( 'NONE', #44, #224, #121 ) ;
#99 = CC_DESIGN_APPROVAL ( #28, ( #45 ) ) ;
#100 = PLANE ( 'NONE',  #117 ) ;
#101 = VERTEX_POINT ( 'NONE', #125 ) ;
#102 = FACE_OUTER_BOUND ( 'NONE', #169, .T. ) ;
#103 = FACE_OUTER_BOUND ( 'NONE', #219, .T. ) ;
#104 = DATE_TIME_ROLE ( 'creation_date' ) ;
#105 = DIRECTION ( 'NONE',  ( -4.275831445896958607E-31, -1.000000000000000000, -1.224646799147353207E-16 ) ) ;
#106 = CIRCLE ( 'NONE', #238, 3.999999999999997335 ) ;
#107 = CARTESIAN_POINT ( 'NONE',  ( 6.284666409917640040E-14, -2.650000000000002576, 18.00000000000000000 ) ) ;
#108 = DATE_TIME_ROLE ( 'classification_date' ) ;
#109 = DESIGN_CONTEXT ( 'detailed design', #53, 'design' ) ;
#110 = ORIENTED_EDGE ( 'NONE', *, *, #143, .T. ) ;
#111 = EDGE_CURVE ( 'NONE', #181, #181, #128, .T. ) ;
#112 = AXIS2_PLACEMENT_3D ( 'NONE', #49, #222, #47 ) ;
#113 = EDGE_CURVE ( 'NONE', #31, #31, #146, .T. ) ;
#114 = DIRECTION ( 'NONE',  ( -4.275831445896958607E-31, -1.000000000000000000, -1.224646799147353207E-16 ) ) ;
#115 = DIRECTION ( 'NONE',  ( 3.491481338843133355E-15, -1.237615716775288637E-16, 1.000000000000000000 ) ) ;
#116 = COORDINATED_UNIVERSAL_TIME_OFFSET ( 1, 0, .AHEAD. ) ;
#117 = AXIS2_PLACEMENT_3D ( 'NONE', #157, #85, #2 ) ;
#118 = CONICAL_SURFACE ( 'NONE', #216, 3.999999999999997335, 0.7853981633974504994 ) ;
#119 = DIRECTION ( 'NONE',  ( 0.0000000000000000000, -1.000000000000000000, 0.0000000000000000000 ) ) ;
#120 = DIRECTION ( 'NONE',  ( 0.0000000000000000000, 1.000000000000000000, 0.0000000000000000000 ) ) ;
#121 = DIRECTION ( 'NONE',  ( -4.321112179779889011E-31, -1.000000000000000000, -1.237615716775288883E-16 ) ) ;
#122 = CC_DESIGN_DATE_AND_TIME_ASSIGNMENT ( #42, #104, ( #26 ) ) ;
#123 = FACE_OUTER_BOUND ( 'NONE', #207, .T. ) ;
#124 = PRODUCT_RELATED_PRODUCT_CATEGORY ( 'detail', '', ( #51 ) ) ;
#125 = CARTESIAN_POINT ( 'NONE',  ( 1.675911042644703064E-14, -3.000000000000000000, 4.799999999999998046 ) ) ;
#126 = CALENDAR_DATE ( 2021, 17, 11 ) ;
#127 = PERSON_AND_ORGANIZATION ( #182, #163 ) ;
#128 = CIRCLE ( 'NONE', #205, 3.000000000000000000 ) ;
#129 = AXIS2_PLACEMENT_3D ( 'NONE', #198, #180, #105 ) ;
#130 = PERSON_AND_ORGANIZATION ( #182, #163 ) ;
#131 = CIRCLE ( 'NONE', #68, 3.999999999999998224 ) ;
#132 = AXIS2_PLACEMENT_3D ( 'NONE', #6, #214, #46 ) ;
#133 = EDGE_CURVE ( 'NONE', #62, #62, #106, .T. ) ;
#134 = CIRCLE ( 'NONE', #112, 2.650000000000000355 ) ;
#135 = AXIS2_PLACEMENT_3D ( 'NONE', #199, #86, #120 ) ;
#136 = DIRECTION ( 'NONE',  ( -4.435022289820680223E-31, -1.000000000000000000, -1.237615716775288637E-16 ) ) ;
#137 = DIRECTION ( 'NONE',  ( 3.491481338843133355E-15, -1.237615716775288637E-16, 1.000000000000000000 ) ) ;
#138 = APPROVAL_STATUS ( 'not_yet_approved' ) ;
#139 = APPROVAL ( #48, 'UNSPECIFIED' ) ;
#140 = CARTESIAN_POINT ( 'NONE',  ( 0.0000000000000000000, 0.0000000000000000000, 0.0000000000000000000 ) ) ;
#141 = MECHANICAL_CONTEXT ( 'NONE', #172, 'mechanical' ) ;
#142 = DIRECTION ( 'NONE',  ( 3.491481338843133355E-15, -1.224646799147353207E-16, 1.000000000000000000 ) ) ;
#143 = EDGE_CURVE ( 'NONE', #66, #66, #134, .T. ) ;
#144 = APPLICATION_PROTOCOL_DEFINITION ( 'international standard', 'config_control_design', 1994, #53 ) ;
#145 = PERSON_AND_ORGANIZATION ( #182, #163 ) ;
#146 = CIRCLE ( 'NONE', #179, 2.650000000000000355 ) ;
#147 = APPROVAL_PERSON_ORGANIZATION ( #60, #188, #227 ) ;
#148 = EDGE_LOOP ( 'NONE', ( #77 ) ) ;
#149 = UNCERTAINTY_MEASURE_WITH_UNIT (LENGTH_MEASURE( 1.000000000000000082E-05 ), #177, 'distance_accuracy_value', 'NONE');
#150 = ORIENTED_EDGE ( 'NONE', *, *, #76, .T. ) ;
#151 = AXIS2_PLACEMENT_3D ( 'NONE', #140, #58, #27 ) ;
#152 = DIRECTION ( 'NONE',  ( -3.491481338843133355E-15, 1.224646799147353207E-16, -1.000000000000000000 ) ) ;
#153 = PLANE ( 'NONE',  #162 ) ;
#154 = PERSON_AND_ORGANIZATION_ROLE ( 'creator' ) ;
#155 = DIRECTION ( 'NONE',  ( 0.0000000000000000000, -1.000000000000000000, 0.0000000000000000000 ) ) ;
#156 = PERSON_AND_ORGANIZATION ( #182, #163 ) ;
#157 = CARTESIAN_POINT ( 'NONE',  ( 2.199633243471174140E-13, 2.399615652258959583E-32, 63.00000000000000000 ) ) ;
#158 = CARTESIAN_POINT ( 'NONE',  ( 2.199633243471174140E-13, 3.199999999999990852, 63.00000000000000000 ) ) ;
#159 = DIRECTION ( 'NONE',  ( 4.275831445896958607E-31, 1.000000000000000000, 1.224646799147353207E-16 ) ) ;
#160 = CC_DESIGN_PERSON_AND_ORGANIZATION_ASSIGNMENT ( #127, #13, ( #189 ) ) ;
#161 = PERSON_AND_ORGANIZATION_ROLE ( 'design_supplier' ) ;
#162 = AXIS2_PLACEMENT_3D ( 'NONE', #194, #63, #7 ) ;
#163 = ORGANIZATION ( 'UNSPECIFIED', 'UNSPECIFIED', '' ) ;
#164 = PERSON_AND_ORGANIZATION ( #182, #163 ) ;
#165 = CC_DESIGN_APPROVAL ( #139, ( #26 ) ) ;
#166 = ORIENTED_EDGE ( 'NONE', *, *, #113, .T. ) ;
#167 = CLOSED_SHELL ( 'NONE', ( #178, #208, #81, #43, #15, #184 ) ) ;
#168 = SHAPE_DEFINITION_REPRESENTATION ( #228, #69 ) ;
#169 = EDGE_LOOP ( 'NONE', ( #242 ) ) ;
#170 = CARTESIAN_POINT ( 'NONE',  ( 7.837394542780120117E-14, -2.285114715285702650E-15, 22.44719012411207615 ) ) ;
#171 = FACE_OUTER_BOUND ( 'NONE', #196, .T. ) ;
#172 = APPLICATION_CONTEXT ( 'configuration controlled 3d designs of mechanical parts and assemblies' ) ;
#173 = CARTESIAN_POINT ( 'NONE',  ( 6.284666409917640040E-14, -2.227708290195519546E-15, 18.00000000000000000 ) ) ;
#174 = PLANE ( 'NONE',  #94 ) ;
#175 = CARTESIAN_POINT ( 'NONE',  ( -6.013332464585499942E-30, -3.000000000000000000, -1.722286869383055748E-15 ) ) ;
#176 = FACE_OUTER_BOUND ( 'NONE', #148, .T. ) ;
#177 =( LENGTH_UNIT ( ) NAMED_UNIT ( * ) SI_UNIT ( .MILLI., .METRE. ) );
#178 = ADVANCED_FACE ( 'NONE', ( #102, #212 ), #226, .T. ) ;
#179 = AXIS2_PLACEMENT_3D ( 'NONE', #173, #82, #155 ) ;
#180 = DIRECTION ( 'NONE',  ( 3.491481338843133355E-15, -1.224646799147353207E-16, 1.000000000000000000 ) ) ;
#181 = VERTEX_POINT ( 'NONE', #175 ) ;
#182 = PERSON ( 'UNSPECIFIED', 'UNSPECIFIED', 'UNSPECIFIED', ('UNSPECIFIED'), ('UNSPECIFIED'), ('UNSPECIFIED') ) ;
#183 = DATE_AND_TIME ( #126, #200 ) ;
#184 = ADVANCED_FACE ( 'NONE', ( #232 ), #174, .F. ) ;
#185 = ORIENTED_EDGE ( 'NONE', *, *, #111, .T. ) ;
#186 = ORIENTED_EDGE ( 'NONE', *, *, #32, .F. ) ;
#187 = EDGE_LOOP ( 'NONE', ( #186 ) ) ;
#188 = APPROVAL ( #138, 'UNSPECIFIED' ) ;
#189 = PRODUCT_DEFINITION_FORMATION_WITH_SPECIFIED_SOURCE ( 'ANY', '', #51, .NOT_KNOWN. ) ;
#190 = FACE_BOUND ( 'NONE', #56, .T. ) ;
#191 = CARTESIAN_POINT ( 'NONE',  ( 6.284666409917641302E-14, -1.734723475976807094E-15, 18.00000000000000355 ) ) ;
#192 = APPROVAL_ROLE ( '' ) ;
#193 = VERTEX_POINT ( 'NONE', #195 ) ;
#194 = CARTESIAN_POINT ( 'NONE',  ( -8.551662891793915461E-31, 2.999519565323715216E-32, -2.449293598294706414E-16 ) ) ;
#195 = CARTESIAN_POINT ( 'NONE',  ( 7.837394542780120117E-14, 3.999999999999995559, 22.44719012411207615 ) ) ;
#196 = EDGE_LOOP ( 'NONE', ( #18 ) ) ;
#197 = CALENDAR_DATE ( 2021, 17, 11 ) ;
#198 = CARTESIAN_POINT ( 'NONE',  ( 1.675911042644703695E-14, 2.999519565323713574E-32, 4.799999999999999822 ) ) ;
#199 = CARTESIAN_POINT ( 'NONE',  ( 2.199633243471174140E-13, -7.715274834628325378E-15, 63.00000000000000000 ) ) ;
#200 = LOCAL_TIME ( 13, 43, 6.000000000000000000, #116 ) ;
#201 = SECURITY_CLASSIFICATION_LEVEL ( 'unclassified' ) ;
#202 = EDGE_LOOP ( 'NONE', ( #34 ) ) ;
#203 = LOCAL_TIME ( 13, 43, 6.000000000000000000, #3 ) ;
#204 = ORIENTED_EDGE ( 'NONE', *, *, #111, .F. ) ;
#205 = AXIS2_PLACEMENT_3D ( 'NONE', #59, #137, #1 ) ;
#206 = CIRCLE ( 'NONE', #135, 3.199999999999998845 ) ;
#207 = EDGE_LOOP ( 'NONE', ( #150 ) ) ;
#208 = ADVANCED_FACE ( 'NONE', ( #190, #19 ), #118, .T. ) ;
#209 = CYLINDRICAL_SURFACE ( 'NONE', #98, 2.650000000000000355 ) ;
#210 = CYLINDRICAL_SURFACE ( 'NONE', #151, 3.000000000000000000 ) ;
#211 = DIRECTION ( 'NONE',  ( -3.491481338843133355E-15, 1.224646799147353207E-16, -1.000000000000000000 ) ) ;
#212 = FACE_OUTER_BOUND ( 'NONE', #39, .T. ) ;
#213 = VERTEX_POINT ( 'NONE', #158 ) ;
#214 = DIRECTION ( 'NONE',  ( 0.0000000000000000000, 0.0000000000000000000, 1.000000000000000000 ) ) ;
#215 = CLOSED_SHELL ( 'NONE', ( #223, #36, #87 ) ) ;
#216 = AXIS2_PLACEMENT_3D ( 'NONE', #95, #152, #30 ) ;
#217 = CALENDAR_DATE ( 2021, 17, 11 ) ;
#218 = COORDINATED_UNIVERSAL_TIME_OFFSET ( 1, 0, .AHEAD. ) ;
#219 = EDGE_LOOP ( 'NONE', ( #204 ) ) ;
#220 = CIRCLE ( 'NONE', #52, 2.999999999999999556 ) ;
#221 = ORIENTED_EDGE ( 'NONE', *, *, #76, .F. ) ;
#222 = DIRECTION ( 'NONE',  ( 3.491481338843133355E-15, -1.237615716775288637E-16, 1.000000000000000000 ) ) ;
#223 = ADVANCED_FACE ( 'NONE', ( #123 ), #9, .T. ) ;
#224 = DIRECTION ( 'NONE',  ( 3.491481338843133355E-15, -1.237615716775288637E-16, 1.000000000000000000 ) ) ;
#225 = CALENDAR_DATE ( 2021, 17, 11 ) ;
#226 = CYLINDRICAL_SURFACE ( 'NONE', #70, 3.999999999999998224 ) ;
#227 = APPROVAL_ROLE ( '' ) ;
#228 = PRODUCT_DEFINITION_SHAPE ( 'NONE', 'NONE',  #26 ) ;
#229 = CARTESIAN_POINT ( 'NONE',  ( 0.0000000000000000000, 0.0000000000000000000, 0.0000000000000000000 ) ) ;
#230 = APPLICATION_PROTOCOL_DEFINITION ( 'international standard', 'config_control_design', 1994, #172 ) ;
#231 = LOCAL_TIME ( 13, 43, 6.000000000000000000, #218 ) ;
#232 = FACE_OUTER_BOUND ( 'NONE', #16, .T. ) ;
#233 = PERSON_AND_ORGANIZATION_ROLE ( 'design_owner' ) ;
#234 = PERSON_AND_ORGANIZATION_ROLE ( 'classification_officer' ) ;
#235 = CC_DESIGN_PERSON_AND_ORGANIZATION_ASSIGNMENT ( #164, #234, ( #45 ) ) ;
#236 = CALENDAR_DATE ( 2021, 17, 11 ) ;
#237 = COORDINATED_UNIVERSAL_TIME_OFFSET ( 1, 0, .AHEAD. ) ;
#238 = AXIS2_PLACEMENT_3D ( 'NONE', #78, #211, #25 ) ;
#239 = ORIENTED_EDGE ( 'NONE', *, *, #241, .T. ) ;
#240 = ORIENTED_EDGE ( 'NONE', *, *, #32, .T. ) ;
#241 = EDGE_CURVE ( 'NONE', #213, #213, #206, .T. ) ;
#242 = ORIENTED_EDGE ( 'NONE', *, *, #133, .T. ) ;
#243 = EDGE_LOOP ( 'NONE', ( #110 ) ) ;
ENDSEC;
END-ISO-10303-21;
