ISO-10303-21;
HEADER;
FILE_DESCRIPTION (( 'STEP AP203' ),
    '1' );
FILE_NAME ('997925.step',
    '2021-11-17T12:43:06',
    ( '' ),
    ( '' ),
    'SwSTEP 2.0',
    'SolidWorks 2019',
    '' );
FILE_SCHEMA (( 'CONFIG_CONTROL_DESIGN' ));
ENDSEC;

DATA;
#1 = CARTESIAN_POINT ( 'NONE',  ( -3.645776912483146453E-30, 1.292308441276291287E-31, -1.044192008682234034E-15 ) ) ;
#2 = FACE_OUTER_BOUND ( 'NONE', #183, .T. ) ;
#3 = APPROVAL_DATE_TIME ( #141, #71 ) ;
#4 = CARTESIAN_POINT ( 'NONE',  ( 5.237222008264700033E-14, -2.210000000000002185, 15.00000000000000000 ) ) ;
#5 = DIRECTION ( 'NONE',  ( 3.491481338843133355E-15, -1.237615716775288637E-16, 1.000000000000000000 ) ) ;
#6 = LOCAL_TIME ( 13, 43, 6.000000000000000000, #205 ) ;
#7 = DIRECTION ( 'NONE',  ( -4.379443414053935565E-31, -1.000000000000000000, -1.237615716775288637E-16 ) ) ;
#8 = EDGE_LOOP ( 'NONE', ( #214 ) ) ;
#9 = FACE_BOUND ( 'NONE', #46, .T. ) ;
#10 = CC_DESIGN_PERSON_AND_ORGANIZATION_ASSIGNMENT ( #89, #73, ( #55 ) ) ;
#11 = PERSON_AND_ORGANIZATION ( #210, #91 ) ;
#12 = CALENDAR_DATE ( 2021, 17, 11 ) ;
#13 = APPROVAL ( #192, 'UNSPECIFIED' ) ;
#14 = ORIENTED_EDGE ( 'NONE', *, *, #76, .T. ) ;
#15 = CIRCLE ( 'NONE', #154, 2.499999999999999556 ) ;
#16 = DIRECTION ( 'NONE',  ( 3.491481338843133355E-15, -1.224646799147353207E-16, 1.000000000000000000 ) ) ;
#17 = PRODUCT_RELATED_PRODUCT_CATEGORY ( 'detail', '', ( #55 ) ) ;
#18 =( GEOMETRIC_REPRESENTATION_CONTEXT ( 3 ) GLOBAL_UNCERTAINTY_ASSIGNED_CONTEXT ( ( #152 ) ) GLOBAL_UNIT_ASSIGNED_CONTEXT ( ( #216, #181, #25 ) ) REPRESENTATION_CONTEXT ( 'NONE', 'WORKASPACE' ) );
#19 = AXIS2_PLACEMENT_3D ( 'NONE', #75, #201, #138 ) ;
#20 = EDGE_LOOP ( 'NONE', ( #237 ) ) ;
#21 = CC_DESIGN_PERSON_AND_ORGANIZATION_ASSIGNMENT ( #60, #144, ( #161 ) ) ;
#22 = PERSON_AND_ORGANIZATION ( #210, #91 ) ;
#23 = CARTESIAN_POINT ( 'NONE',  ( 5.237222008264700033E-14, -1.734723475976807094E-15, 15.00000000000000000 ) ) ;
#24 = DIRECTION ( 'NONE',  ( -4.321112179779889011E-31, -1.000000000000000000, -1.237615716775288637E-16 ) ) ;
#25 =( NAMED_UNIT ( * ) SI_UNIT ( $, .STERADIAN. ) SOLID_ANGLE_UNIT ( ) );
#26 = SECURITY_CLASSIFICATION ( '', '', #228 ) ;
#27 = CALENDAR_DATE ( 2021, 17, 11 ) ;
#28 = FACE_OUTER_BOUND ( 'NONE', #132, .T. ) ;
#29 = CARTESIAN_POINT ( 'NONE',  ( 0.0000000000000000000, 0.0000000000000000000, 0.0000000000000000000 ) ) ;
#30 = ORIENTED_EDGE ( 'NONE', *, *, #172, .T. ) ;
#31 = CALENDAR_DATE ( 2021, 17, 11 ) ;
#32 = CARTESIAN_POINT ( 'NONE',  ( -6.413747168845438786E-31, 2.249639673992786412E-32, -1.836970198721029934E-16 ) ) ;
#33 = DIRECTION ( 'NONE',  ( -4.275831445896958607E-31, -1.000000000000000000, -1.224646799147353207E-16 ) ) ;
#34 = ADVANCED_BREP_SHAPE_REPRESENTATION ( '997925', ( #185, #182, #112 ), #18 ) ;
#35 = CC_DESIGN_PERSON_AND_ORGANIZATION_ASSIGNMENT ( #204, #170, ( #136 ) ) ;
#36 = APPROVAL_DATE_TIME ( #95, #13 ) ;
#37 = DIRECTION ( 'NONE',  ( 3.491481338843133355E-15, -1.237615716775288637E-16, 1.000000000000000000 ) ) ;
#38 = CARTESIAN_POINT ( 'NONE',  ( 1.990144363140586139E-13, 1.799711739194223382E-32, 57.00000000000000000 ) ) ;
#39 = ADVANCED_FACE ( 'NONE', ( #115 ), #209, .F. ) ;
#40 = VERTEX_POINT ( 'NONE', #194 ) ;
#41 = CARTESIAN_POINT ( 'NONE',  ( 1.990144363140586139E-13, 2.399999999999999467, 57.00000000000000000 ) ) ;
#42 = LOCAL_TIME ( 13, 43, 6.000000000000000000, #96 ) ;
#43 = ORIENTED_EDGE ( 'NONE', *, *, #156, .T. ) ;
#44 = CC_DESIGN_APPROVAL ( #71, ( #136 ) ) ;
#45 = EDGE_CURVE ( 'NONE', #189, #189, #124, .T. ) ;
#46 = EDGE_LOOP ( 'NONE', ( #30 ) ) ;
#47 = CARTESIAN_POINT ( 'NONE',  ( 6.447507641083316483E-14, 2.999999999999997335, 18.46639582275307845 ) ) ;
#48 = AXIS2_PLACEMENT_3D ( 'NONE', #61, #99, #176 ) ;
#49 = EDGE_LOOP ( 'NONE', ( #43 ) ) ;
#50 = COORDINATED_UNIVERSAL_TIME_OFFSET ( 1, 0, .AHEAD. ) ;
#51 = CC_DESIGN_SECURITY_CLASSIFICATION ( #26, ( #136 ) ) ;
#52 = CYLINDRICAL_SURFACE ( 'NONE', #235, 2.499999999999999556 ) ;
#53 = DIRECTION ( 'NONE',  ( 3.491481338843133355E-15, -1.237615716775288637E-16, 1.000000000000000000 ) ) ;
#54 = CALENDAR_DATE ( 2021, 17, 11 ) ;
#55 = PRODUCT ( '997925', '997925', '', ( #159 ) ) ;
#56 = DIRECTION ( 'NONE',  ( 0.0000000000000000000, 1.000000000000000000, 0.0000000000000000000 ) ) ;
#57 = AXIS2_PLACEMENT_3D ( 'NONE', #32, #63, #77 ) ;
#58 = CARTESIAN_POINT ( 'NONE',  ( 6.447507641083316483E-14, -2.163730071057148698E-15, 18.46639582275307845 ) ) ;
#59 = EDGE_CURVE ( 'NONE', #148, #148, #15, .T. ) ;
#60 = PERSON_AND_ORGANIZATION ( #210, #91 ) ;
#61 = CARTESIAN_POINT ( 'NONE',  ( 0.0000000000000000000, 0.0000000000000000000, 0.0000000000000000000 ) ) ;
#62 = COORDINATED_UNIVERSAL_TIME_OFFSET ( 1, 0, .AHEAD. ) ;
#63 = DIRECTION ( 'NONE',  ( -3.491481338843133355E-15, 1.224646799147353207E-16, -1.000000000000000000 ) ) ;
#64 = AXIS2_PLACEMENT_3D ( 'NONE', #83, #212, #65 ) ;
#65 = DIRECTION ( 'NONE',  ( 0.0000000000000000000, 1.000000000000000000, 0.0000000000000000000 ) ) ;
#66 = AXIS2_PLACEMENT_3D ( 'NONE', #171, #126, #200 ) ;
#67 = ADVANCED_FACE ( 'NONE', ( #79 ), #206, .F. ) ;
#68 = APPROVAL_PERSON_ORGANIZATION ( #11, #71, #146 ) ;
#69 = CLOSED_SHELL ( 'NONE', ( #129, #92, #67, #118, #139, #39 ) ) ;
#70 = CIRCLE ( 'NONE', #133, 2.500000000000000000 ) ;
#71 = APPROVAL ( #230, 'UNSPECIFIED' ) ;
#72 = EDGE_LOOP ( 'NONE', ( #217 ) ) ;
#73 = PERSON_AND_ORGANIZATION_ROLE ( 'design_owner' ) ;
#74 = APPROVAL_ROLE ( '' ) ;
#75 = CARTESIAN_POINT ( 'NONE',  ( 1.969195475107527465E-13, -6.907007947191072769E-15, 56.40000000000000568 ) ) ;
#76 = EDGE_CURVE ( 'NONE', #40, #40, #87, .T. ) ;
#77 = DIRECTION ( 'NONE',  ( 4.275831445896958607E-31, 1.000000000000000000, 1.224646799147353207E-16 ) ) ;
#78 = PERSON_AND_ORGANIZATION ( #210, #91 ) ;
#79 = FACE_OUTER_BOUND ( 'NONE', #72, .T. ) ;
#80 = PERSON_AND_ORGANIZATION ( #210, #91 ) ;
#81 = FACE_OUTER_BOUND ( 'NONE', #20, .T. ) ;
#82 = EDGE_LOOP ( 'NONE', ( #88 ) ) ;
#83 = CARTESIAN_POINT ( 'NONE',  ( 1.969195475107527465E-13, -6.907007947191072769E-15, 56.40000000000000568 ) ) ;
#84 = APPROVAL ( #220, 'UNSPECIFIED' ) ;
#85 = VERTEX_POINT ( 'NONE', #47 ) ;
#86 = EDGE_CURVE ( 'NONE', #149, #149, #224, .T. ) ;
#87 = CIRCLE ( 'NONE', #64, 2.999999999999999112 ) ;
#88 = ORIENTED_EDGE ( 'NONE', *, *, #59, .T. ) ;
#89 = PERSON_AND_ORGANIZATION ( #210, #91 ) ;
#90 = DIRECTION ( 'NONE',  ( 1.000000000000000000, 0.0000000000000000000, 0.0000000000000000000 ) ) ;
#91 = ORGANIZATION ( 'UNSPECIFIED', 'UNSPECIFIED', '' ) ;
#92 = ADVANCED_FACE ( 'NONE', ( #9, #162 ), #243, .T. ) ;
#93 = PERSON_AND_ORGANIZATION_ROLE ( 'classification_officer' ) ;
#94 = DIRECTION ( 'NONE',  ( -4.321112179779888136E-31, -1.000000000000000000, -1.237615716775288883E-16 ) ) ;
#95 = DATE_AND_TIME ( #12, #153 ) ;
#96 = COORDINATED_UNIVERSAL_TIME_OFFSET ( 1, 0, .AHEAD. ) ;
#97 = LOCAL_TIME ( 13, 43, 6.000000000000000000, #62 ) ;
#98 = PLANE ( 'NONE',  #66 ) ;
#99 = DIRECTION ( 'NONE',  ( 3.491481338843133355E-15, -1.237615716775288637E-16, 1.000000000000000000 ) ) ;
#100 = CLOSED_SHELL ( 'NONE', ( #242, #108, #177 ) ) ;
#101 = CYLINDRICAL_SURFACE ( 'NONE', #188, 2.999999999999999556 ) ;
#102 = VERTEX_POINT ( 'NONE', #130 ) ;
#103 = EDGE_LOOP ( 'NONE', ( #107 ) ) ;
#104 = AXIS2_PLACEMENT_3D ( 'NONE', #38, #193, #234 ) ;
#105 = AXIS2_PLACEMENT_3D ( 'NONE', #23, #106, #7 ) ;
#106 = DIRECTION ( 'NONE',  ( 3.491481338843133355E-15, -1.237615716775288637E-16, 1.000000000000000000 ) ) ;
#107 = ORIENTED_EDGE ( 'NONE', *, *, #45, .F. ) ;
#108 = ADVANCED_FACE ( 'NONE', ( #218, #223 ), #52, .T. ) ;
#109 = DIRECTION ( 'NONE',  ( 0.0000000000000000000, 1.000000000000000000, 0.0000000000000000000 ) ) ;
#110 = EDGE_LOOP ( 'NONE', ( #14 ) ) ;
#111 = DIRECTION ( 'NONE',  ( 0.0000000000000000000, -1.000000000000000000, 0.0000000000000000000 ) ) ;
#112 = AXIS2_PLACEMENT_3D ( 'NONE', #239, #135, #90 ) ;
#113 = PERSON_AND_ORGANIZATION_ROLE ( 'design_supplier' ) ;
#114 = FACE_OUTER_BOUND ( 'NONE', #49, .T. ) ;
#115 = FACE_OUTER_BOUND ( 'NONE', #231, .T. ) ;
#116 = SHAPE_DEFINITION_REPRESENTATION ( #174, #34 ) ;
#117 = AXIS2_PLACEMENT_3D ( 'NONE', #163, #122, #111 ) ;
#118 = ADVANCED_FACE ( 'NONE', ( #2, #227 ), #143, .T. ) ;
#119 = DESIGN_CONTEXT ( 'detailed design', #134, 'design' ) ;
#120 = APPLICATION_PROTOCOL_DEFINITION ( 'international standard', 'config_control_design', 1994, #215 ) ;
#121 = CARTESIAN_POINT ( 'NONE',  ( 1.990144363140586139E-13, -6.980486755139912911E-15, 57.00000000000000000 ) ) ;
#122 = DIRECTION ( 'NONE',  ( 3.491481338843133355E-15, -1.237615716775288637E-16, 1.000000000000000000 ) ) ;
#123 = CC_DESIGN_APPROVAL ( #84, ( #161 ) ) ;
#124 = CIRCLE ( 'NONE', #166, 2.210000000000000409 ) ;
#125 = DATE_TIME_ROLE ( 'classification_date' ) ;
#126 = DIRECTION ( 'NONE',  ( 3.491481338843133355E-15, -1.224646799147353207E-16, 1.000000000000000000 ) ) ;
#127 = DATE_AND_TIME ( #167, #97 ) ;
#128 = DIRECTION ( 'NONE',  ( 3.491481338843133355E-15, -1.237615716775288637E-16, 1.000000000000000000 ) ) ;
#129 = ADVANCED_FACE ( 'NONE', ( #150, #236 ), #101, .T. ) ;
#130 = CARTESIAN_POINT ( 'NONE',  ( 1.396592535537253342E-14, -2.500000000000000444, 4.000000000000000000 ) ) ;
#131 = ORIENTED_EDGE ( 'NONE', *, *, #86, .T. ) ;
#132 = EDGE_LOOP ( 'NONE', ( #179 ) ) ;
#133 = AXIS2_PLACEMENT_3D ( 'NONE', #160, #241, #221 ) ;
#134 = APPLICATION_CONTEXT ( 'configuration controlled 3d designs of mechanical parts and assemblies' ) ;
#135 = DIRECTION ( 'NONE',  ( 0.0000000000000000000, 0.0000000000000000000, 1.000000000000000000 ) ) ;
#136 = PRODUCT_DEFINITION_FORMATION_WITH_SPECIFIED_SOURCE ( 'ANY', '', #55, .NOT_KNOWN. ) ;
#137 = APPLICATION_PROTOCOL_DEFINITION ( 'international standard', 'config_control_design', 1994, #134 ) ;
#138 = DIRECTION ( 'NONE',  ( 0.0000000000000000000, 1.000000000000000000, 0.0000000000000000000 ) ) ;
#139 = ADVANCED_FACE ( 'NONE', ( #158, #28 ), #219, .F. ) ;
#140 = APPROVAL_DATE_TIME ( #225, #84 ) ;
#141 = DATE_AND_TIME ( #31, #42 ) ;
#142 = PLANE ( 'NONE',  #57 ) ;
#143 = CYLINDRICAL_SURFACE ( 'NONE', #48, 2.210000000000000409 ) ;
#144 = PERSON_AND_ORGANIZATION_ROLE ( 'creator' ) ;
#145 = CC_DESIGN_PERSON_AND_ORGANIZATION_ASSIGNMENT ( #165, #93, ( #26 ) ) ;
#146 = APPROVAL_ROLE ( '' ) ;
#147 = ORIENTED_EDGE ( 'NONE', *, *, #156, .F. ) ;
#148 = VERTEX_POINT ( 'NONE', #208 ) ;
#149 = VERTEX_POINT ( 'NONE', #196 ) ;
#150 = FACE_OUTER_BOUND ( 'NONE', #110, .T. ) ;
#151 = ORIENTED_EDGE ( 'NONE', *, *, #86, .F. ) ;
#152 = UNCERTAINTY_MEASURE_WITH_UNIT (LENGTH_MEASURE( 1.000000000000000082E-05 ), #216, 'distance_accuracy_value', 'NONE');
#153 = LOCAL_TIME ( 13, 43, 6.000000000000000000, #164 ) ;
#154 = AXIS2_PLACEMENT_3D ( 'NONE', #1, #5, #94 ) ;
#155 = ORIENTED_EDGE ( 'NONE', *, *, #76, .F. ) ;
#156 = EDGE_CURVE ( 'NONE', #102, #102, #70, .T. ) ;
#157 = AXIS2_PLACEMENT_3D ( 'NONE', #121, #198, #109 ) ;
#158 = FACE_OUTER_BOUND ( 'NONE', #186, .T. ) ;
#159 = MECHANICAL_CONTEXT ( 'NONE', #215, 'mechanical' ) ;
#160 = CARTESIAN_POINT ( 'NONE',  ( 1.396592535537253342E-14, -4.950462867101154547E-16, 4.000000000000000000 ) ) ;
#161 = PRODUCT_DEFINITION ( 'UNKNOWN', '', #136, #119 ) ;
#162 = FACE_OUTER_BOUND ( 'NONE', #240, .T. ) ;
#163 = CARTESIAN_POINT ( 'NONE',  ( 1.396592535537253342E-14, -4.950462867101154547E-16, 4.000000000000000000 ) ) ;
#164 = COORDINATED_UNIVERSAL_TIME_OFFSET ( 1, 0, .AHEAD. ) ;
#165 = PERSON_AND_ORGANIZATION ( #210, #91 ) ;
#166 = AXIS2_PLACEMENT_3D ( 'NONE', #173, #128, #190 ) ;
#167 = CALENDAR_DATE ( 2021, 17, 11 ) ;
#168 = CC_DESIGN_DATE_AND_TIME_ASSIGNMENT ( #127, #125, ( #26 ) ) ;
#169 = CIRCLE ( 'NONE', #157, 2.400000000000006128 ) ;
#170 = PERSON_AND_ORGANIZATION_ROLE ( 'creator' ) ;
#171 = CARTESIAN_POINT ( 'NONE',  ( 1.396592535537253342E-14, 2.249639673992785864E-32, 4.000000000000000000 ) ) ;
#172 = EDGE_CURVE ( 'NONE', #211, #211, #169, .T. ) ;
#173 = CARTESIAN_POINT ( 'NONE',  ( 5.237222008264700033E-14, -1.856423575162932955E-15, 15.00000000000000000 ) ) ;
#174 = PRODUCT_DEFINITION_SHAPE ( 'NONE', 'NONE',  #161 ) ;
#175 = APPROVAL_PERSON_ORGANIZATION ( #22, #84, #74 ) ;
#176 = DIRECTION ( 'NONE',  ( -4.321112179779889887E-31, -1.000000000000000000, -1.237615716775288637E-16 ) ) ;
#177 = ADVANCED_FACE ( 'NONE', ( #81 ), #142, .T. ) ;
#178 = CARTESIAN_POINT ( 'NONE',  ( 0.0000000000000000000, 0.0000000000000000000, 0.0000000000000000000 ) ) ;
#179 = ORIENTED_EDGE ( 'NONE', *, *, #45, .T. ) ;
#180 = ORIENTED_EDGE ( 'NONE', *, *, #213, .F. ) ;
#181 =( NAMED_UNIT ( * ) PLANE_ANGLE_UNIT ( ) SI_UNIT ( $, .RADIAN. ) );
#182 = MANIFOLD_SOLID_BREP ( 'Corps-Déplacer/Copier1[2]', #100 ) ;
#183 = EDGE_LOOP ( 'NONE', ( #131 ) ) ;
#184 = DIRECTION ( 'NONE',  ( 4.275831445896959482E-31, 1.000000000000000000, 1.224646799147353207E-16 ) ) ;
#185 = MANIFOLD_SOLID_BREP ( 'Corps-Déplacer/Copier1[1]', #69 ) ;
#186 = EDGE_LOOP ( 'NONE', ( #180 ) ) ;
#187 = APPROVAL_ROLE ( '' ) ;
#188 = AXIS2_PLACEMENT_3D ( 'NONE', #178, #199, #184 ) ;
#189 = VERTEX_POINT ( 'NONE', #4 ) ;
#190 = DIRECTION ( 'NONE',  ( 0.0000000000000000000, -1.000000000000000000, 0.0000000000000000000 ) ) ;
#191 = CARTESIAN_POINT ( 'NONE',  ( 1.396592535537253342E-14, 2.249639673992785864E-32, 4.000000000000000000 ) ) ;
#192 = APPROVAL_STATUS ( 'not_yet_approved' ) ;
#193 = DIRECTION ( 'NONE',  ( -3.491481338843133355E-15, 1.224646799147353207E-16, -1.000000000000000000 ) ) ;
#194 = CARTESIAN_POINT ( 'NONE',  ( 1.969195475107527465E-13, 2.999999999999992450, 56.40000000000000568 ) ) ;
#195 = AXIS2_PLACEMENT_3D ( 'NONE', #58, #37, #56 ) ;
#196 = CARTESIAN_POINT ( 'NONE',  ( 1.396592535537253342E-14, -2.210000000000000853, 4.000000000000000000 ) ) ;
#197 = CC_DESIGN_DATE_AND_TIME_ASSIGNMENT ( #203, #207, ( #161 ) ) ;
#198 = DIRECTION ( 'NONE',  ( -3.491481338843133355E-15, 1.224646799147353207E-16, -1.000000000000000000 ) ) ;
#199 = DIRECTION ( 'NONE',  ( -3.491481338843133355E-15, 1.224646799147353207E-16, -1.000000000000000000 ) ) ;
#200 = DIRECTION ( 'NONE',  ( -4.275831445896958607E-31, -1.000000000000000000, -1.224646799147353207E-16 ) ) ;
#201 = DIRECTION ( 'NONE',  ( -3.491481338843133355E-15, 1.224646799147353207E-16, -1.000000000000000000 ) ) ;
#202 = APPROVAL_PERSON_ORGANIZATION ( #78, #13, #187 ) ;
#203 = DATE_AND_TIME ( #54, #6 ) ;
#204 = PERSON_AND_ORGANIZATION ( #210, #91 ) ;
#205 = COORDINATED_UNIVERSAL_TIME_OFFSET ( 1, 0, .AHEAD. ) ;
#206 = PLANE ( 'NONE',  #104 ) ;
#207 = DATE_TIME_ROLE ( 'creation_date' ) ;
#208 = CARTESIAN_POINT ( 'NONE',  ( -4.726054957428118794E-30, -2.499999999999999556, -1.353595937876056193E-15 ) ) ;
#209 = PLANE ( 'NONE',  #238 ) ;
#210 = PERSON ( 'UNSPECIFIED', 'UNSPECIFIED', 'UNSPECIFIED', ('UNSPECIFIED'), ('UNSPECIFIED'), ('UNSPECIFIED') ) ;
#211 = VERTEX_POINT ( 'NONE', #41 ) ;
#212 = DIRECTION ( 'NONE',  ( -3.491481338843133355E-15, 1.224646799147353207E-16, -1.000000000000000000 ) ) ;
#213 = EDGE_CURVE ( 'NONE', #85, #85, #226, .T. ) ;
#214 = ORIENTED_EDGE ( 'NONE', *, *, #213, .T. ) ;
#215 = APPLICATION_CONTEXT ( 'configuration controlled 3d designs of mechanical parts and assemblies' ) ;
#216 =( LENGTH_UNIT ( ) NAMED_UNIT ( * ) SI_UNIT ( .MILLI., .METRE. ) );
#217 = ORIENTED_EDGE ( 'NONE', *, *, #172, .F. ) ;
#218 = FACE_OUTER_BOUND ( 'NONE', #82, .T. ) ;
#219 = TOROIDAL_SURFACE ( 'NONE', #105, 10.21000000000000085, 8.000000000000000000 ) ;
#220 = APPROVAL_STATUS ( 'not_yet_approved' ) ;
#221 = DIRECTION ( 'NONE',  ( 0.0000000000000000000, -1.000000000000000000, 0.0000000000000000000 ) ) ;
#222 = LOCAL_TIME ( 13, 43, 6.000000000000000000, #50 ) ;
#223 = FACE_OUTER_BOUND ( 'NONE', #229, .T. ) ;
#224 = CIRCLE ( 'NONE', #117, 2.210000000000000409 ) ;
#225 = DATE_AND_TIME ( #27, #222 ) ;
#226 = CIRCLE ( 'NONE', #195, 2.999999999999999556 ) ;
#227 = FACE_OUTER_BOUND ( 'NONE', #103, .T. ) ;
#228 = SECURITY_CLASSIFICATION_LEVEL ( 'unclassified' ) ;
#229 = EDGE_LOOP ( 'NONE', ( #147 ) ) ;
#230 = APPROVAL_STATUS ( 'not_yet_approved' ) ;
#231 = EDGE_LOOP ( 'NONE', ( #151 ) ) ;
#232 = CC_DESIGN_APPROVAL ( #13, ( #26 ) ) ;
#233 = CC_DESIGN_PERSON_AND_ORGANIZATION_ASSIGNMENT ( #80, #113, ( #136 ) ) ;
#234 = DIRECTION ( 'NONE',  ( 4.275831445896958607E-31, 1.000000000000000000, 1.224646799147353207E-16 ) ) ;
#235 = AXIS2_PLACEMENT_3D ( 'NONE', #29, #53, #24 ) ;
#236 = FACE_OUTER_BOUND ( 'NONE', #8, .T. ) ;
#237 = ORIENTED_EDGE ( 'NONE', *, *, #59, .F. ) ;
#238 = AXIS2_PLACEMENT_3D ( 'NONE', #191, #16, #33 ) ;
#239 = CARTESIAN_POINT ( 'NONE',  ( 0.0000000000000000000, 0.0000000000000000000, 0.0000000000000000000 ) ) ;
#240 = EDGE_LOOP ( 'NONE', ( #155 ) ) ;
#241 = DIRECTION ( 'NONE',  ( 3.491481338843133355E-15, -1.237615716775288637E-16, 1.000000000000000000 ) ) ;
#242 = ADVANCED_FACE ( 'NONE', ( #114 ), #98, .T. ) ;
#243 = CONICAL_SURFACE ( 'NONE', #19, 2.999999999999999112, 0.7853981633974453924 ) ;
ENDSEC;
END-ISO-10303-21;
