ISO-10303-21;
HEADER;
FILE_DESCRIPTION (( 'STEP AP203' ),
    '1' );
FILE_NAME ('997924.step',
    '2021-11-17T12:43:05',
    ( '' ),
    ( '' ),
    'SwSTEP 2.0',
    'SolidWorks 2019',
    '' );
FILE_SCHEMA (( 'CONFIG_CONTROL_DESIGN' ));
ENDSEC;

DATA;
#1 = DATE_AND_TIME ( #174, #234 ) ;
#2 = DIRECTION ( 'NONE',  ( 3.491481338843133355E-15, -1.237615716775288637E-16, 1.000000000000000000 ) ) ;
#3 = CLOSED_SHELL ( 'NONE', ( #166, #80, #37, #65, #141, #205 ) ) ;
#4 = CARTESIAN_POINT ( 'NONE',  ( 1.990144363140586139E-13, 1.799711739194223382E-32, 57.00000000000000000 ) ) ;
#5 = LOCAL_TIME ( 13, 43, 5.000000000000000000, #29 ) ;
#6 = CARTESIAN_POINT ( 'NONE',  ( 1.117274028429802674E-14, -4.625929269271484928E-16, 3.199999999999999734 ) ) ;
#7 = PERSON_AND_ORGANIZATION ( #28, #188 ) ;
#8 = CYLINDRICAL_SURFACE ( 'NONE', #77, 2.000000000000000000 ) ;
#9 = AXIS2_PLACEMENT_3D ( 'NONE', #23, #60, #86 ) ;
#10 = CARTESIAN_POINT ( 'NONE',  ( 1.990144363140586139E-13, 2.399999999999999467, 57.00000000000000000 ) ) ;
#11 = EDGE_LOOP ( 'NONE', ( #82 ) ) ;
#12 = VERTEX_POINT ( 'NONE', #35 ) ;
#13 = EDGE_LOOP ( 'NONE', ( #49 ) ) ;
#14 = DIRECTION ( 'NONE',  ( 0.0000000000000000000, 1.000000000000000000, 0.0000000000000000000 ) ) ;
#15 = MECHANICAL_CONTEXT ( 'NONE', #126, 'mechanical' ) ;
#16 = APPROVAL_ROLE ( '' ) ;
#17 = APPROVAL ( #75, 'UNSPECIFIED' ) ;
#18 = DATE_AND_TIME ( #97, #223 ) ;
#19 =( GEOMETRIC_REPRESENTATION_CONTEXT ( 3 ) GLOBAL_UNCERTAINTY_ASSIGNED_CONTEXT ( ( #96 ) ) GLOBAL_UNIT_ASSIGNED_CONTEXT ( ( #39, #168, #71 ) ) REPRESENTATION_CONTEXT ( 'NONE', 'WORKASPACE' ) );
#20 = APPROVAL_ROLE ( '' ) ;
#21 = EDGE_LOOP ( 'NONE', ( #102 ) ) ;
#22 = EDGE_CURVE ( 'NONE', #145, #145, #38, .T. ) ;
#23 = CARTESIAN_POINT ( 'NONE',  ( 0.0000000000000000000, 0.0000000000000000000, 0.0000000000000000000 ) ) ;
#24 = FACE_OUTER_BOUND ( 'NONE', #155, .T. ) ;
#25 = PLANE ( 'NONE',  #27 ) ;
#26 = MANIFOLD_SOLID_BREP ( 'Corps-Déplacer/Copier1[2]', #215 ) ;
#27 = AXIS2_PLACEMENT_3D ( 'NONE', #198, #104, #61 ) ;
#28 = PERSON ( 'UNSPECIFIED', 'UNSPECIFIED', 'UNSPECIFIED', ('UNSPECIFIED'), ('UNSPECIFIED'), ('UNSPECIFIED') ) ;
#29 = COORDINATED_UNIVERSAL_TIME_OFFSET ( 1, 0, .AHEAD. ) ;
#30 = DIRECTION ( 'NONE',  ( -4.321112179779889011E-31, -1.000000000000000000, -1.237615716775288637E-16 ) ) ;
#31 = CARTESIAN_POINT ( 'NONE',  ( 1.117274028429802674E-14, -4.625929269271484928E-16, 3.199999999999999734 ) ) ;
#32 = AXIS2_PLACEMENT_3D ( 'NONE', #207, #132, #94 ) ;
#33 = CARTESIAN_POINT ( 'NONE',  ( 0.0000000000000000000, 0.0000000000000000000, 0.0000000000000000000 ) ) ;
#34 = APPROVAL_PERSON_ORGANIZATION ( #7, #232, #137 ) ;
#35 = CARTESIAN_POINT ( 'NONE',  ( 1.117274028429802200E-14, -1.765000000000001013, 3.199999999999997957 ) ) ;
#36 = DIRECTION ( 'NONE',  ( 4.275831445896958607E-31, 1.000000000000000000, 1.224646799147353207E-16 ) ) ;
#37 = ADVANCED_FACE ( 'NONE', ( #203 ), #67, .F. ) ;
#38 = CIRCLE ( 'NONE', #157, 2.999999999999999112 ) ;
#39 =( LENGTH_UNIT ( ) NAMED_UNIT ( * ) SI_UNIT ( .MILLI., .METRE. ) );
#40 = PERSON_AND_ORGANIZATION ( #28, #188 ) ;
#41 = CC_DESIGN_PERSON_AND_ORGANIZATION_ASSIGNMENT ( #240, #209, ( #211 ) ) ;
#42 = PERSON_AND_ORGANIZATION_ROLE ( 'design_owner' ) ;
#43 = COORDINATED_UNIVERSAL_TIME_OFFSET ( 1, 0, .AHEAD. ) ;
#44 = PRODUCT ( '997924', '997924', '', ( #15 ) ) ;
#45 = CC_DESIGN_PERSON_AND_ORGANIZATION_ASSIGNMENT ( #95, #74, ( #167 ) ) ;
#46 = ORIENTED_EDGE ( 'NONE', *, *, #127, .F. ) ;
#47 = CARTESIAN_POINT ( 'NONE',  ( 5.680716793557896006E-14, -2.263212558817530518E-15, 16.27021954939087323 ) ) ;
#48 = CC_DESIGN_SECURITY_CLASSIFICATION ( #211, ( #167 ) ) ;
#49 = ORIENTED_EDGE ( 'NONE', *, *, #221, .T. ) ;
#50 = FACE_BOUND ( 'NONE', #21, .T. ) ;
#51 = PRODUCT_DEFINITION ( 'UNKNOWN', '', #167, #150 ) ;
#52 = EDGE_LOOP ( 'NONE', ( #70 ) ) ;
#53 = AXIS2_PLACEMENT_3D ( 'NONE', #113, #165, #14 ) ;
#54 = PERSON_AND_ORGANIZATION_ROLE ( 'design_supplier' ) ;
#55 = CIRCLE ( 'NONE', #226, 2.400000000000006128 ) ;
#56 = DATE_AND_TIME ( #227, #208 ) ;
#57 = APPROVAL_PERSON_ORGANIZATION ( #40, #17, #16 ) ;
#58 = EDGE_LOOP ( 'NONE', ( #158 ) ) ;
#59 = CC_DESIGN_PERSON_AND_ORGANIZATION_ASSIGNMENT ( #172, #42, ( #44 ) ) ;
#60 = DIRECTION ( 'NONE',  ( -3.491481338843133355E-15, 1.224646799147353207E-16, -1.000000000000000000 ) ) ;
#61 = DIRECTION ( 'NONE',  ( 4.275831445896958607E-31, 1.000000000000000000, 1.224646799147353207E-16 ) ) ;
#62 = DIRECTION ( 'NONE',  ( 3.491481338843133355E-15, -1.237615716775288637E-16, 1.000000000000000000 ) ) ;
#63 = FACE_OUTER_BOUND ( 'NONE', #52, .T. ) ;
#64 = AXIS2_PLACEMENT_3D ( 'NONE', #189, #187, #133 ) ;
#65 = ADVANCED_FACE ( 'NONE', ( #91, #115 ), #83, .T. ) ;
#66 = CONICAL_SURFACE ( 'NONE', #53, 2.999999999999999112, 0.7853981633974453924 ) ;
#67 = PLANE ( 'NONE',  #241 ) ;
#68 = CC_DESIGN_DATE_AND_TIME_ASSIGNMENT ( #56, #242, ( #51 ) ) ;
#69 = AXIS2_PLACEMENT_3D ( 'NONE', #47, #62, #185 ) ;
#70 = ORIENTED_EDGE ( 'NONE', *, *, #98, .T. ) ;
#71 =( NAMED_UNIT ( * ) SI_UNIT ( $, .STERADIAN. ) SOLID_ANGLE_UNIT ( ) );
#72 = DIRECTION ( 'NONE',  ( -3.491481338843133355E-15, 1.224646799147353207E-16, -1.000000000000000000 ) ) ;
#73 = COORDINATED_UNIVERSAL_TIME_OFFSET ( 1, 0, .AHEAD. ) ;
#74 = PERSON_AND_ORGANIZATION_ROLE ( 'creator' ) ;
#75 = APPROVAL_STATUS ( 'not_yet_approved' ) ;
#76 = ADVANCED_FACE ( 'NONE', ( #144 ), #25, .T. ) ;
#77 = AXIS2_PLACEMENT_3D ( 'NONE', #123, #85, #30 ) ;
#78 = CARTESIAN_POINT ( 'NONE',  ( 4.189777606611760026E-14, -1.485138860130346364E-15, 12.00000000000000000 ) ) ;
#79 = ORIENTED_EDGE ( 'NONE', *, *, #98, .F. ) ;
#80 = ADVANCED_FACE ( 'NONE', ( #50, #129 ), #66, .T. ) ;
#81 = DIRECTION ( 'NONE',  ( 3.491481338843133355E-15, -1.237615716775288637E-16, 1.000000000000000000 ) ) ;
#82 = ORIENTED_EDGE ( 'NONE', *, *, #22, .T. ) ;
#83 = CYLINDRICAL_SURFACE ( 'NONE', #200, 1.765000000000000568 ) ;
#84 = APPROVAL_PERSON_ORGANIZATION ( #135, #90, #20 ) ;
#85 = DIRECTION ( 'NONE',  ( 3.491481338843133355E-15, -1.237615716775288637E-16, 1.000000000000000000 ) ) ;
#86 = DIRECTION ( 'NONE',  ( 4.275831445896959482E-31, 1.000000000000000000, 1.224646799147353207E-16 ) ) ;
#87 = VERTEX_POINT ( 'NONE', #109 ) ;
#88 = CARTESIAN_POINT ( 'NONE',  ( 1.117274028429802043E-14, -2.000000000000000444, 3.199999999999997957 ) ) ;
#89 = EDGE_LOOP ( 'NONE', ( #214 ) ) ;
#90 = APPROVAL ( #191, 'UNSPECIFIED' ) ;
#91 = FACE_OUTER_BOUND ( 'NONE', #119, .T. ) ;
#92 = VERTEX_POINT ( 'NONE', #236 ) ;
#93 = AXIS2_PLACEMENT_3D ( 'NONE', #233, #2, #212 ) ;
#94 = DIRECTION ( 'NONE',  ( -7.703719777548943412E-31, -1.000000000000000000, -2.168404344971008868E-16 ) ) ;
#95 = PERSON_AND_ORGANIZATION ( #28, #188 ) ;
#96 = UNCERTAINTY_MEASURE_WITH_UNIT (LENGTH_MEASURE( 1.000000000000000082E-05 ), #39, 'distance_accuracy_value', 'NONE');
#97 = CALENDAR_DATE ( 2021, 17, 11 ) ;
#98 = EDGE_CURVE ( 'NONE', #130, #130, #105, .T. ) ;
#99 = ORIENTED_EDGE ( 'NONE', *, *, #153, .F. ) ;
#100 = COORDINATED_UNIVERSAL_TIME_OFFSET ( 1, 0, .AHEAD. ) ;
#101 = CARTESIAN_POINT ( 'NONE',  ( 4.189777606611760657E-14, -1.734723475976807094E-15, 12.00000000000000178 ) ) ;
#102 = ORIENTED_EDGE ( 'NONE', *, *, #127, .T. ) ;
#103 = PRODUCT_DEFINITION_SHAPE ( 'NONE', 'NONE',  #51 ) ;
#104 = DIRECTION ( 'NONE',  ( -3.491481338843133355E-15, 1.224646799147353207E-16, -1.000000000000000000 ) ) ;
#105 = CIRCLE ( 'NONE', #32, 2.000000000000000000 ) ;
#106 = CARTESIAN_POINT ( 'NONE',  ( 1.969195475107527465E-13, -6.907007947191072769E-15, 56.40000000000000568 ) ) ;
#107 = CC_DESIGN_APPROVAL ( #17, ( #51 ) ) ;
#108 = DIRECTION ( 'NONE',  ( -4.275831445896958607E-31, -1.000000000000000000, -1.224646799147353207E-16 ) ) ;
#109 = CARTESIAN_POINT ( 'NONE',  ( 5.680716793557896006E-14, 2.999999999999997335, 16.27021954939087323 ) ) ;
#110 = CIRCLE ( 'NONE', #93, 1.765000000000000568 ) ;
#111 = PRODUCT_RELATED_PRODUCT_CATEGORY ( 'detail', '', ( #44 ) ) ;
#112 = MANIFOLD_SOLID_BREP ( 'Corps-Déplacer/Copier1[1]', #3 ) ;
#113 = CARTESIAN_POINT ( 'NONE',  ( 1.969195475107527465E-13, -6.907007947191072769E-15, 56.40000000000000568 ) ) ;
#114 = CARTESIAN_POINT ( 'NONE',  ( 4.189777606611760026E-14, -1.765000000000001901, 12.00000000000000000 ) ) ;
#115 = FACE_OUTER_BOUND ( 'NONE', #140, .T. ) ;
#116 = PERSON_AND_ORGANIZATION ( #28, #188 ) ;
#117 = APPROVAL_DATE_TIME ( #18, #17 ) ;
#118 = CIRCLE ( 'NONE', #69, 2.999999999999999556 ) ;
#119 = EDGE_LOOP ( 'NONE', ( #237 ) ) ;
#120 = AXIS2_PLACEMENT_3D ( 'NONE', #78, #154, #182 ) ;
#121 = PLANE ( 'NONE',  #204 ) ;
#122 = CALENDAR_DATE ( 2021, 17, 11 ) ;
#123 = CARTESIAN_POINT ( 'NONE',  ( 0.0000000000000000000, 0.0000000000000000000, 0.0000000000000000000 ) ) ;
#124 = CC_DESIGN_PERSON_AND_ORGANIZATION_ASSIGNMENT ( #116, #54, ( #167 ) ) ;
#125 = DATE_AND_TIME ( #122, #5 ) ;
#126 = APPLICATION_CONTEXT ( 'configuration controlled 3d designs of mechanical parts and assemblies' ) ;
#127 = EDGE_CURVE ( 'NONE', #164, #164, #55, .T. ) ;
#128 = DIRECTION ( 'NONE',  ( 0.0000000000000000000, 1.000000000000000000, 0.0000000000000000000 ) ) ;
#129 = FACE_OUTER_BOUND ( 'NONE', #58, .T. ) ;
#130 = VERTEX_POINT ( 'NONE', #88 ) ;
#131 = AXIS2_PLACEMENT_3D ( 'NONE', #101, #139, #194 ) ;
#132 = DIRECTION ( 'NONE',  ( 3.491481338843133355E-15, -1.237615716775288637E-16, 1.000000000000000000 ) ) ;
#133 = DIRECTION ( 'NONE',  ( 1.000000000000000000, 0.0000000000000000000, 0.0000000000000000000 ) ) ;
#134 = APPLICATION_PROTOCOL_DEFINITION ( 'international standard', 'config_control_design', 1994, #156 ) ;
#135 = PERSON_AND_ORGANIZATION ( #28, #188 ) ;
#136 = DIRECTION ( 'NONE',  ( 3.491481338843133355E-15, -1.224646799147353207E-16, 1.000000000000000000 ) ) ;
#137 = APPROVAL_ROLE ( '' ) ;
#138 = FACE_OUTER_BOUND ( 'NONE', #89, .T. ) ;
#139 = DIRECTION ( 'NONE',  ( 3.491481338843133355E-15, -1.237615716775288637E-16, 1.000000000000000000 ) ) ;
#140 = EDGE_LOOP ( 'NONE', ( #99 ) ) ;
#141 = ADVANCED_FACE ( 'NONE', ( #138, #179 ), #186, .F. ) ;
#142 = CARTESIAN_POINT ( 'NONE',  ( 1.969195475107527465E-13, 2.999999999999992450, 56.40000000000000568 ) ) ;
#143 = ORIENTED_EDGE ( 'NONE', *, *, #175, .F. ) ;
#144 = FACE_OUTER_BOUND ( 'NONE', #238, .T. ) ;
#145 = VERTEX_POINT ( 'NONE', #142 ) ;
#146 = CC_DESIGN_APPROVAL ( #232, ( #211 ) ) ;
#147 = DIRECTION ( 'NONE',  ( -4.321112179779889011E-31, -1.000000000000000000, -1.237615716775288390E-16 ) ) ;
#148 = COORDINATED_UNIVERSAL_TIME_OFFSET ( 1, 0, .AHEAD. ) ;
#149 = DATE_AND_TIME ( #222, #193 ) ;
#150 = DESIGN_CONTEXT ( 'detailed design', #156, 'design' ) ;
#151 = EDGE_LOOP ( 'NONE', ( #235 ) ) ;
#152 = PERSON_AND_ORGANIZATION ( #28, #188 ) ;
#153 = EDGE_CURVE ( 'NONE', #206, #206, #192, .T. ) ;
#154 = DIRECTION ( 'NONE',  ( 3.491481338843133355E-15, -1.237615716775288637E-16, 1.000000000000000000 ) ) ;
#155 = EDGE_LOOP ( 'NONE', ( #79 ) ) ;
#156 = APPLICATION_CONTEXT ( 'configuration controlled 3d designs of mechanical parts and assemblies' ) ;
#157 = AXIS2_PLACEMENT_3D ( 'NONE', #106, #216, #128 ) ;
#158 = ORIENTED_EDGE ( 'NONE', *, *, #22, .F. ) ;
#159 = APPROVAL_STATUS ( 'not_yet_approved' ) ;
#160 = DIRECTION ( 'NONE',  ( 3.491481338843133355E-15, -1.237615716775288637E-16, 1.000000000000000000 ) ) ;
#161 = DIRECTION ( 'NONE',  ( 3.491481338843133355E-15, -1.224646799147353207E-16, 1.000000000000000000 ) ) ;
#162 = CARTESIAN_POINT ( 'NONE',  ( -3.429721303494152966E-30, 1.215723808155830786E-31, -9.823112228434696024E-16 ) ) ;
#163 = AXIS2_PLACEMENT_3D ( 'NONE', #162, #81, #197 ) ;
#164 = VERTEX_POINT ( 'NONE', #10 ) ;
#165 = DIRECTION ( 'NONE',  ( -3.491481338843133355E-15, 1.224646799147353207E-16, -1.000000000000000000 ) ) ;
#166 = ADVANCED_FACE ( 'NONE', ( #210, #201 ), #177, .T. ) ;
#167 = PRODUCT_DEFINITION_FORMATION_WITH_SPECIFIED_SOURCE ( 'ANY', '', #44, .NOT_KNOWN. ) ;
#168 =( NAMED_UNIT ( * ) PLANE_ANGLE_UNIT ( ) SI_UNIT ( $, .RADIAN. ) );
#169 = CARTESIAN_POINT ( 'NONE',  ( 1.990144363140586139E-13, -6.980486755139912911E-15, 57.00000000000000000 ) ) ;
#170 = SECURITY_CLASSIFICATION_LEVEL ( 'unclassified' ) ;
#171 = ADVANCED_FACE ( 'NONE', ( #63 ), #229, .T. ) ;
#172 = PERSON_AND_ORGANIZATION ( #28, #188 ) ;
#173 = APPLICATION_PROTOCOL_DEFINITION ( 'international standard', 'config_control_design', 1994, #126 ) ;
#174 = CALENDAR_DATE ( 2021, 17, 11 ) ;
#175 = EDGE_CURVE ( 'NONE', #92, #92, #202, .T. ) ;
#176 = ORIENTED_EDGE ( 'NONE', *, *, #153, .T. ) ;
#177 = CYLINDRICAL_SURFACE ( 'NONE', #9, 2.999999999999999556 ) ;
#178 = EDGE_CURVE ( 'NONE', #12, #12, #110, .T. ) ;
#179 = FACE_OUTER_BOUND ( 'NONE', #225, .T. ) ;
#180 = EDGE_LOOP ( 'NONE', ( #190 ) ) ;
#181 = FACE_OUTER_BOUND ( 'NONE', #151, .T. ) ;
#182 = DIRECTION ( 'NONE',  ( 0.0000000000000000000, -1.000000000000000000, 0.0000000000000000000 ) ) ;
#183 = ADVANCED_BREP_SHAPE_REPRESENTATION ( '997924', ( #112, #26, #64 ), #19 ) ;
#184 = ADVANCED_FACE ( 'NONE', ( #230, #24 ), #8, .T. ) ;
#185 = DIRECTION ( 'NONE',  ( 0.0000000000000000000, 1.000000000000000000, 0.0000000000000000000 ) ) ;
#186 = TOROIDAL_SURFACE ( 'NONE', #131, 9.765000000000000568, 8.000000000000000000 ) ;
#187 = DIRECTION ( 'NONE',  ( 0.0000000000000000000, 0.0000000000000000000, 1.000000000000000000 ) ) ;
#188 = ORGANIZATION ( 'UNSPECIFIED', 'UNSPECIFIED', '' ) ;
#189 = CARTESIAN_POINT ( 'NONE',  ( 0.0000000000000000000, 0.0000000000000000000, 0.0000000000000000000 ) ) ;
#190 = ORIENTED_EDGE ( 'NONE', *, *, #175, .T. ) ;
#191 = APPROVAL_STATUS ( 'not_yet_approved' ) ;
#192 = CIRCLE ( 'NONE', #120, 1.765000000000000346 ) ;
#193 = LOCAL_TIME ( 13, 43, 5.000000000000000000, #148 ) ;
#194 = DIRECTION ( 'NONE',  ( -4.380904567966232264E-31, -1.000000000000000000, -1.237615716775288637E-16 ) ) ;
#195 = CC_DESIGN_PERSON_AND_ORGANIZATION_ASSIGNMENT ( #152, #243, ( #51 ) ) ;
#196 = APPROVAL_DATE_TIME ( #125, #232 ) ;
#197 = DIRECTION ( 'NONE',  ( -4.321112179779889011E-31, -1.000000000000000000, -1.237615716775288637E-16 ) ) ;
#198 = CARTESIAN_POINT ( 'NONE',  ( -6.413747168845438786E-31, 2.249639673992786412E-32, -1.836970198721029934E-16 ) ) ;
#199 = SHAPE_DEFINITION_REPRESENTATION ( #103, #183 ) ;
#200 = AXIS2_PLACEMENT_3D ( 'NONE', #33, #160, #147 ) ;
#201 = FACE_OUTER_BOUND ( 'NONE', #13, .T. ) ;
#202 = CIRCLE ( 'NONE', #163, 2.000000000000000000 ) ;
#203 = FACE_OUTER_BOUND ( 'NONE', #217, .T. ) ;
#204 = AXIS2_PLACEMENT_3D ( 'NONE', #6, #161, #231 ) ;
#205 = ADVANCED_FACE ( 'NONE', ( #181 ), #121, .F. ) ;
#206 = VERTEX_POINT ( 'NONE', #114 ) ;
#207 = CARTESIAN_POINT ( 'NONE',  ( 1.117274028429802200E-14, -3.960370293680921567E-16, 3.199999999999998401 ) ) ;
#208 = LOCAL_TIME ( 13, 43, 5.000000000000000000, #73 ) ;
#209 = PERSON_AND_ORGANIZATION_ROLE ( 'classification_officer' ) ;
#210 = FACE_OUTER_BOUND ( 'NONE', #11, .T. ) ;
#211 = SECURITY_CLASSIFICATION ( '', '', #170 ) ;
#212 = DIRECTION ( 'NONE',  ( 0.0000000000000000000, -1.000000000000000000, -2.457115405066298156E-16 ) ) ;
#213 = CC_DESIGN_DATE_AND_TIME_ASSIGNMENT ( #149, #224, ( #211 ) ) ;
#214 = ORIENTED_EDGE ( 'NONE', *, *, #221, .F. ) ;
#215 = CLOSED_SHELL ( 'NONE', ( #171, #184, #76 ) ) ;
#216 = DIRECTION ( 'NONE',  ( -3.491481338843133355E-15, 1.224646799147353207E-16, -1.000000000000000000 ) ) ;
#217 = EDGE_LOOP ( 'NONE', ( #46 ) ) ;
#218 = DIRECTION ( 'NONE',  ( -3.491481338843133355E-15, 1.224646799147353207E-16, -1.000000000000000000 ) ) ;
#219 = APPROVAL_DATE_TIME ( #1, #90 ) ;
#220 = AXIS2_PLACEMENT_3D ( 'NONE', #31, #136, #108 ) ;
#221 = EDGE_CURVE ( 'NONE', #87, #87, #118, .T. ) ;
#222 = CALENDAR_DATE ( 2021, 17, 11 ) ;
#223 = LOCAL_TIME ( 13, 43, 5.000000000000000000, #43 ) ;
#224 = DATE_TIME_ROLE ( 'classification_date' ) ;
#225 = EDGE_LOOP ( 'NONE', ( #176 ) ) ;
#226 = AXIS2_PLACEMENT_3D ( 'NONE', #169, #72, #239 ) ;
#227 = CALENDAR_DATE ( 2021, 17, 11 ) ;
#228 = CC_DESIGN_APPROVAL ( #90, ( #167 ) ) ;
#229 = PLANE ( 'NONE',  #220 ) ;
#230 = FACE_OUTER_BOUND ( 'NONE', #180, .T. ) ;
#231 = DIRECTION ( 'NONE',  ( -4.275831445896958607E-31, -1.000000000000000000, -1.224646799147353207E-16 ) ) ;
#232 = APPROVAL ( #159, 'UNSPECIFIED' ) ;
#233 = CARTESIAN_POINT ( 'NONE',  ( 1.117274028429802200E-14, -3.960370293680921567E-16, 3.199999999999998401 ) ) ;
#234 = LOCAL_TIME ( 13, 43, 5.000000000000000000, #100 ) ;
#235 = ORIENTED_EDGE ( 'NONE', *, *, #178, .F. ) ;
#236 = CARTESIAN_POINT ( 'NONE',  ( -4.293943739450130418E-30, -2.000000000000000000, -1.229834366198527330E-15 ) ) ;
#237 = ORIENTED_EDGE ( 'NONE', *, *, #178, .T. ) ;
#238 = EDGE_LOOP ( 'NONE', ( #143 ) ) ;
#239 = DIRECTION ( 'NONE',  ( 0.0000000000000000000, 1.000000000000000000, 0.0000000000000000000 ) ) ;
#240 = PERSON_AND_ORGANIZATION ( #28, #188 ) ;
#241 = AXIS2_PLACEMENT_3D ( 'NONE', #4, #218, #36 ) ;
#242 = DATE_TIME_ROLE ( 'creation_date' ) ;
#243 = PERSON_AND_ORGANIZATION_ROLE ( 'creator' ) ;
ENDSEC;
END-ISO-10303-21;
