ISO-10303-21;
HEADER;
FILE_DESCRIPTION (( 'STEP AP203' ),
    '1' );
FILE_NAME ('997923.step',
    '2021-11-17T12:43:05',
    ( '' ),
    ( '' ),
    'SwSTEP 2.0',
    'SolidWorks 2019',
    '' );
FILE_SCHEMA (( 'CONFIG_CONTROL_DESIGN' ));
ENDSEC;

DATA;
#1 = PERSON_AND_ORGANIZATION ( #59, #140 ) ;
#2 = CARTESIAN_POINT ( 'NONE',  ( 0.0000000000000000000, 0.0000000000000000000, 0.0000000000000000000 ) ) ;
#3 = EDGE_LOOP ( 'NONE', ( #111 ) ) ;
#4 = DATE_AND_TIME ( #60, #66 ) ;
#5 = ADVANCED_FACE ( 'NONE', ( #97 ), #52, .T. ) ;
#6 = AXIS2_PLACEMENT_3D ( 'NONE', #133, #74, #151 ) ;
#7 = CC_DESIGN_APPROVAL ( #90, ( #216 ) ) ;
#8 =( NAMED_UNIT ( * ) SI_UNIT ( $, .STERADIAN. ) SOLID_ANGLE_UNIT ( ) );
#9 = EDGE_LOOP ( 'NONE', ( #24 ) ) ;
#10 = APPLICATION_PROTOCOL_DEFINITION ( 'international standard', 'config_control_design', 1994, #156 ) ;
#11 = FACE_OUTER_BOUND ( 'NONE', #48, .T. ) ;
#12 = DIRECTION ( 'NONE',  ( -4.382423104809059209E-31, -1.000000000000000000, -1.237615716775288637E-16 ) ) ;
#13 = PERSON_AND_ORGANIZATION_ROLE ( 'creator' ) ;
#14 = DIRECTION ( 'NONE',  ( 0.0000000000000000000, -1.000000000000000000, 0.0000000000000000000 ) ) ;
#15 = CARTESIAN_POINT ( 'NONE',  ( 1.396592535537253342E-13, -4.898587196589413026E-15, 40.00000000000000000 ) ) ;
#16 = DIRECTION ( 'NONE',  ( -3.491481338843133355E-15, 1.224646799147353207E-16, -1.000000000000000000 ) ) ;
#17 = DIRECTION ( 'NONE',  ( 4.275831445896958607E-31, 1.000000000000000000, 1.224646799147353207E-16 ) ) ;
#18 = AXIS2_PLACEMENT_3D ( 'NONE', #56, #155, #224 ) ;
#19 = APPROVAL_ROLE ( '' ) ;
#20 = FACE_OUTER_BOUND ( 'NONE', #3, .T. ) ;
#21 = APPROVAL_ROLE ( '' ) ;
#22 = CC_DESIGN_DATE_AND_TIME_ASSIGNMENT ( #85, #25, ( #231 ) ) ;
#23 = SHAPE_DEFINITION_REPRESENTATION ( #162, #232 ) ;
#24 = ORIENTED_EDGE ( 'NONE', *, *, #121, .T. ) ;
#25 = DATE_TIME_ROLE ( 'classification_date' ) ;
#26 = ORIENTED_EDGE ( 'NONE', *, *, #106, .F. ) ;
#27 = DIRECTION ( 'NONE',  ( -4.321112179779889011E-31, -1.000000000000000000, -1.237615716775288637E-16 ) ) ;
#28 = VERTEX_POINT ( 'NONE', #164 ) ;
#29 = EDGE_LOOP ( 'NONE', ( #215 ) ) ;
#30 = PERSON_AND_ORGANIZATION ( #59, #140 ) ;
#31 = CARTESIAN_POINT ( 'NONE',  ( 8.728703347107828655E-15, -3.094039291938220113E-16, 2.499999999999998668 ) ) ;
#32 = CARTESIAN_POINT ( 'NONE',  ( 1.375643647504194668E-13, -4.825108388640572095E-15, 39.40000000000000568 ) ) ;
#33 = DESIGN_CONTEXT ( 'detailed design', #156, 'design' ) ;
#34 = EDGE_CURVE ( 'NONE', #42, #42, #206, .T. ) ;
#35 = DIRECTION ( 'NONE',  ( 3.491481338843133355E-15, -1.237615716775288637E-16, 1.000000000000000000 ) ) ;
#36 = CC_DESIGN_DATE_AND_TIME_ASSIGNMENT ( #75, #159, ( #216 ) ) ;
#37 = DIRECTION ( 'NONE',  ( 3.491481338843133355E-15, -1.237615716775288637E-16, 1.000000000000000000 ) ) ;
#38 = DIRECTION ( 'NONE',  ( 3.491481338843133355E-15, -1.237615716775288637E-16, 1.000000000000000000 ) ) ;
#39 = CLOSED_SHELL ( 'NONE', ( #5, #176, #58 ) ) ;
#40 = LOCAL_TIME ( 13, 43, 5.000000000000000000, #235 ) ;
#41 = ADVANCED_FACE ( 'NONE', ( #241, #172 ), #190, .T. ) ;
#42 = VERTEX_POINT ( 'NONE', #157 ) ;
#43 = CARTESIAN_POINT ( 'NONE',  ( 8.728703347107828655E-15, -1.325000000000000178, 2.499999999999998668 ) ) ;
#44 = PERSON_AND_ORGANIZATION ( #59, #140 ) ;
#45 = AXIS2_PLACEMENT_3D ( 'NONE', #132, #47, #233 ) ;
#46 = EDGE_LOOP ( 'NONE', ( #202 ) ) ;
#47 = DIRECTION ( 'NONE',  ( 0.0000000000000000000, 0.0000000000000000000, 1.000000000000000000 ) ) ;
#48 = EDGE_LOOP ( 'NONE', ( #114 ) ) ;
#49 = CONICAL_SURFACE ( 'NONE', #198, 3.000000000000000444, 0.7853981633974511656 ) ;
#50 = CYLINDRICAL_SURFACE ( 'NONE', #6, 1.324999999999999956 ) ;
#51 = DIRECTION ( 'NONE',  ( 3.491481338843133355E-15, -1.237615716775288637E-16, 1.000000000000000000 ) ) ;
#52 = PLANE ( 'NONE',  #107 ) ;
#53 = LOCAL_TIME ( 13, 43, 5.000000000000000000, #229 ) ;
#54 = EDGE_CURVE ( 'NONE', #100, #100, #173, .T. ) ;
#55 = PLANE ( 'NONE',  #139 ) ;
#56 = CARTESIAN_POINT ( 'NONE',  ( 4.852602292885763856E-14, -2.340957821148663991E-15, 13.89840535276532307 ) ) ;
#57 = CARTESIAN_POINT ( 'NONE',  ( 1.396592535537253342E-13, 1.799711739194222561E-32, 40.00000000000000000 ) ) ;
#58 = ADVANCED_FACE ( 'NONE', ( #120 ), #55, .T. ) ;
#59 = PERSON ( 'UNSPECIFIED', 'UNSPECIFIED', 'UNSPECIFIED', ('UNSPECIFIED'), ('UNSPECIFIED'), ('UNSPECIFIED') ) ;
#60 = CALENDAR_DATE ( 2021, 17, 11 ) ;
#61 = DIRECTION ( 'NONE',  ( 3.491481338843133355E-15, -1.237615716775288637E-16, 1.000000000000000000 ) ) ;
#62 = AXIS2_PLACEMENT_3D ( 'NONE', #153, #38, #122 ) ;
#63 = CARTESIAN_POINT ( 'NONE',  ( 1.375643647504194668E-13, 2.999999999999995559, 39.40000000000000568 ) ) ;
#64 = APPROVAL_DATE_TIME ( #197, #128 ) ;
#65 = AXIS2_PLACEMENT_3D ( 'NONE', #15, #188, #134 ) ;
#66 = LOCAL_TIME ( 13, 43, 5.000000000000000000, #177 ) ;
#67 = PRODUCT_RELATED_PRODUCT_CATEGORY ( 'detail', '', ( #227 ) ) ;
#68 = EDGE_LOOP ( 'NONE', ( #26 ) ) ;
#69 = VERTEX_POINT ( 'NONE', #63 ) ;
#70 = CC_DESIGN_PERSON_AND_ORGANIZATION_ASSIGNMENT ( #30, #115, ( #227 ) ) ;
#71 = AXIS2_PLACEMENT_3D ( 'NONE', #220, #117, #12 ) ;
#72 = APPROVAL_PERSON_ORGANIZATION ( #181, #118, #21 ) ;
#73 = FACE_OUTER_BOUND ( 'NONE', #242, .T. ) ;
#74 = DIRECTION ( 'NONE',  ( 3.491481338843133355E-15, -1.237615716775288637E-16, 1.000000000000000000 ) ) ;
#75 = DATE_AND_TIME ( #135, #113 ) ;
#76 = PLANE ( 'NONE',  #130 ) ;
#77 = DIRECTION ( 'NONE',  ( -3.491481338843133355E-15, 1.224646799147353207E-16, -1.000000000000000000 ) ) ;
#78 = AXIS2_PLACEMENT_3D ( 'NONE', #31, #51, #14 ) ;
#79 = DIRECTION ( 'NONE',  ( 3.491481338843133355E-15, -1.224646799147353207E-16, 1.000000000000000000 ) ) ;
#80 = EDGE_LOOP ( 'NONE', ( #98 ) ) ;
#81 = PLANE ( 'NONE',  #163 ) ;
#82 = FACE_OUTER_BOUND ( 'NONE', #9, .T. ) ;
#83 = PERSON_AND_ORGANIZATION_ROLE ( 'design_supplier' ) ;
#84 = CARTESIAN_POINT ( 'NONE',  ( 3.142333204958820020E-14, -1.325000000000001066, 9.000000000000000000 ) ) ;
#85 = DATE_AND_TIME ( #214, #53 ) ;
#86 = CARTESIAN_POINT ( 'NONE',  ( 1.375643647504194668E-13, -4.825108388640572095E-15, 39.40000000000000568 ) ) ;
#87 = APPROVAL_STATUS ( 'not_yet_approved' ) ;
#88 = MANIFOLD_SOLID_BREP ( 'Corps-Déplacer/Copier1[1]', #178 ) ;
#89 = COORDINATED_UNIVERSAL_TIME_OFFSET ( 1, 0, .AHEAD. ) ;
#90 = APPROVAL ( #87, 'UNSPECIFIED' ) ;
#91 = CIRCLE ( 'NONE', #78, 1.499999999999999778 ) ;
#92 = EDGE_LOOP ( 'NONE', ( #199 ) ) ;
#93 = FACE_OUTER_BOUND ( 'NONE', #68, .T. ) ;
#94 =( GEOMETRIC_REPRESENTATION_CONTEXT ( 3 ) GLOBAL_UNCERTAINTY_ASSIGNED_CONTEXT ( ( #187 ) ) GLOBAL_UNIT_ASSIGNED_CONTEXT ( ( #148, #196, #8 ) ) REPRESENTATION_CONTEXT ( 'NONE', 'WORKASPACE' ) );
#95 = CARTESIAN_POINT ( 'NONE',  ( -6.413747168845438786E-31, 2.249639673992786412E-32, -1.836970198721029934E-16 ) ) ;
#96 = APPROVAL_DATE_TIME ( #203, #90 ) ;
#97 = FACE_OUTER_BOUND ( 'NONE', #184, .T. ) ;
#98 = ORIENTED_EDGE ( 'NONE', *, *, #121, .F. ) ;
#99 = CC_DESIGN_PERSON_AND_ORGANIZATION_ASSIGNMENT ( #44, #83, ( #102 ) ) ;
#100 = VERTEX_POINT ( 'NONE', #123 ) ;
#101 = CIRCLE ( 'NONE', #179, 1.324999999999999956 ) ;
#102 = PRODUCT_DEFINITION_FORMATION_WITH_SPECIFIED_SOURCE ( 'ANY', '', #227, .NOT_KNOWN. ) ;
#103 = PERSON_AND_ORGANIZATION_ROLE ( 'classification_officer' ) ;
#104 = VERTEX_POINT ( 'NONE', #84 ) ;
#105 = CYLINDRICAL_SURFACE ( 'NONE', #112, 1.500000000000000000 ) ;
#106 = EDGE_CURVE ( 'NONE', #104, #104, #204, .T. ) ;
#107 = AXIS2_PLACEMENT_3D ( 'NONE', #237, #171, #136 ) ;
#108 = APPROVAL_ROLE ( '' ) ;
#109 = ORIENTED_EDGE ( 'NONE', *, *, #34, .F. ) ;
#110 = PERSON_AND_ORGANIZATION ( #59, #140 ) ;
#111 = ORIENTED_EDGE ( 'NONE', *, *, #54, .F. ) ;
#112 = AXIS2_PLACEMENT_3D ( 'NONE', #2, #61, #27 ) ;
#113 = LOCAL_TIME ( 13, 43, 5.000000000000000000, #239 ) ;
#114 = ORIENTED_EDGE ( 'NONE', *, *, #106, .T. ) ;
#115 = PERSON_AND_ORGANIZATION_ROLE ( 'design_owner' ) ;
#116 = DIRECTION ( 'NONE',  ( -4.321112179779891639E-31, -1.000000000000000000, -1.237615716775288390E-16 ) ) ;
#117 = DIRECTION ( 'NONE',  ( 3.491481338843133355E-15, -1.237615716775288637E-16, 1.000000000000000000 ) ) ;
#118 = APPROVAL ( #230, 'UNSPECIFIED' ) ;
#119 = DIRECTION ( 'NONE',  ( 0.0000000000000000000, -1.000000000000000000, 0.0000000000000000000 ) ) ;
#120 = FACE_OUTER_BOUND ( 'NONE', #46, .T. ) ;
#121 = EDGE_CURVE ( 'NONE', #160, #160, #101, .T. ) ;
#122 = DIRECTION ( 'NONE',  ( 0.0000000000000000000, -1.000000000000000000, 0.0000000000000000000 ) ) ;
#123 = CARTESIAN_POINT ( 'NONE',  ( 1.396592535537253342E-13, 2.399999999999995914, 40.00000000000000000 ) ) ;
#124 = AXIS2_PLACEMENT_3D ( 'NONE', #32, #16, #189 ) ;
#125 = CC_DESIGN_SECURITY_CLASSIFICATION ( #231, ( #102 ) ) ;
#126 = EDGE_CURVE ( 'NONE', #28, #28, #91, .T. ) ;
#127 = APPROVAL_STATUS ( 'not_yet_approved' ) ;
#128 = APPROVAL ( #127, 'UNSPECIFIED' ) ;
#129 = CARTESIAN_POINT ( 'NONE',  ( -3.861832521472142743E-30, -1.500000000000000444, -1.106072794520998663E-15 ) ) ;
#130 = AXIS2_PLACEMENT_3D ( 'NONE', #207, #79, #161 ) ;
#131 = EDGE_LOOP ( 'NONE', ( #217 ) ) ;
#132 = CARTESIAN_POINT ( 'NONE',  ( 0.0000000000000000000, 0.0000000000000000000, 0.0000000000000000000 ) ) ;
#133 = CARTESIAN_POINT ( 'NONE',  ( 0.0000000000000000000, 0.0000000000000000000, 0.0000000000000000000 ) ) ;
#134 = DIRECTION ( 'NONE',  ( 0.0000000000000000000, 1.000000000000000000, 0.0000000000000000000 ) ) ;
#135 = CALENDAR_DATE ( 2021, 17, 11 ) ;
#136 = DIRECTION ( 'NONE',  ( -4.275831445896958607E-31, -1.000000000000000000, -1.224646799147353207E-16 ) ) ;
#137 = AXIS2_PLACEMENT_3D ( 'NONE', #138, #77, #186 ) ;
#138 = CARTESIAN_POINT ( 'NONE',  ( 0.0000000000000000000, 0.0000000000000000000, 0.0000000000000000000 ) ) ;
#139 = AXIS2_PLACEMENT_3D ( 'NONE', #95, #209, #205 ) ;
#140 = ORGANIZATION ( 'UNSPECIFIED', 'UNSPECIFIED', '' ) ;
#141 = EDGE_CURVE ( 'NONE', #69, #69, #228, .T. ) ;
#142 = PERSON_AND_ORGANIZATION_ROLE ( 'creator' ) ;
#143 = APPROVAL_DATE_TIME ( #4, #118 ) ;
#144 = PERSON_AND_ORGANIZATION ( #59, #140 ) ;
#145 = CC_DESIGN_PERSON_AND_ORGANIZATION_ASSIGNMENT ( #1, #142, ( #102 ) ) ;
#146 = ORIENTED_EDGE ( 'NONE', *, *, #126, .T. ) ;
#147 = ADVANCED_FACE ( 'NONE', ( #82, #93 ), #50, .T. ) ;
#148 =( LENGTH_UNIT ( ) NAMED_UNIT ( * ) SI_UNIT ( .MILLI., .METRE. ) );
#149 = EDGE_CURVE ( 'NONE', #236, #236, #154, .T. ) ;
#150 = APPROVAL_PERSON_ORGANIZATION ( #168, #90, #108 ) ;
#151 = DIRECTION ( 'NONE',  ( -4.321112179779889887E-31, -1.000000000000000000, -1.237615716775288883E-16 ) ) ;
#152 = FACE_OUTER_BOUND ( 'NONE', #201, .T. ) ;
#153 = CARTESIAN_POINT ( 'NONE',  ( 3.142333204958820020E-14, -1.113854145097759773E-15, 9.000000000000000000 ) ) ;
#154 = CIRCLE ( 'NONE', #183, 1.500000000000000444 ) ;
#155 = DIRECTION ( 'NONE',  ( 3.491481338843133355E-15, -1.237615716775288637E-16, 1.000000000000000000 ) ) ;
#156 = APPLICATION_CONTEXT ( 'configuration controlled 3d designs of mechanical parts and assemblies' ) ;
#157 = CARTESIAN_POINT ( 'NONE',  ( 4.852602292885763856E-14, 2.999999999999997780, 13.89840535276532307 ) ) ;
#158 = ADVANCED_FACE ( 'NONE', ( #185, #11 ), #212, .F. ) ;
#159 = DATE_TIME_ROLE ( 'creation_date' ) ;
#160 = VERTEX_POINT ( 'NONE', #43 ) ;
#161 = DIRECTION ( 'NONE',  ( -4.275831445896958607E-31, -1.000000000000000000, -1.224646799147353207E-16 ) ) ;
#162 = PRODUCT_DEFINITION_SHAPE ( 'NONE', 'NONE',  #216 ) ;
#163 = AXIS2_PLACEMENT_3D ( 'NONE', #57, #192, #17 ) ;
#164 = CARTESIAN_POINT ( 'NONE',  ( 8.728703347107828655E-15, -1.500000000000000000, 2.499999999999998668 ) ) ;
#165 = CALENDAR_DATE ( 2021, 17, 11 ) ;
#166 = APPLICATION_CONTEXT ( 'configuration controlled 3d designs of mechanical parts and assemblies' ) ;
#167 = ORIENTED_EDGE ( 'NONE', *, *, #126, .F. ) ;
#168 = PERSON_AND_ORGANIZATION ( #59, #140 ) ;
#169 = ORIENTED_EDGE ( 'NONE', *, *, #149, .T. ) ;
#170 = PERSON_AND_ORGANIZATION ( #59, #140 ) ;
#171 = DIRECTION ( 'NONE',  ( 3.491481338843133355E-15, -1.224646799147353207E-16, 1.000000000000000000 ) ) ;
#172 = FACE_OUTER_BOUND ( 'NONE', #131, .T. ) ;
#173 = CIRCLE ( 'NONE', #65, 2.400000000000000799 ) ;
#174 = APPROVAL_PERSON_ORGANIZATION ( #110, #128, #19 ) ;
#175 = DIRECTION ( 'NONE',  ( 0.0000000000000000000, 1.000000000000000000, 0.0000000000000000000 ) ) ;
#176 = ADVANCED_FACE ( 'NONE', ( #73, #152 ), #105, .T. ) ;
#177 = COORDINATED_UNIVERSAL_TIME_OFFSET ( 1, 0, .AHEAD. ) ;
#178 = CLOSED_SHELL ( 'NONE', ( #41, #191, #210, #147, #158, #182 ) ) ;
#179 = AXIS2_PLACEMENT_3D ( 'NONE', #243, #35, #119 ) ;
#180 = EDGE_LOOP ( 'NONE', ( #109 ) ) ;
#181 = PERSON_AND_ORGANIZATION ( #59, #140 ) ;
#182 = ADVANCED_FACE ( 'NONE', ( #240 ), #76, .F. ) ;
#183 = AXIS2_PLACEMENT_3D ( 'NONE', #208, #37, #116 ) ;
#184 = EDGE_LOOP ( 'NONE', ( #146 ) ) ;
#185 = FACE_OUTER_BOUND ( 'NONE', #180, .T. ) ;
#186 = DIRECTION ( 'NONE',  ( 4.275831445896959482E-31, 1.000000000000000000, 1.224646799147353207E-16 ) ) ;
#187 = UNCERTAINTY_MEASURE_WITH_UNIT (LENGTH_MEASURE( 1.000000000000000082E-05 ), #148, 'distance_accuracy_value', 'NONE');
#188 = DIRECTION ( 'NONE',  ( -3.491481338843133355E-15, 1.224646799147353207E-16, -1.000000000000000000 ) ) ;
#189 = DIRECTION ( 'NONE',  ( 0.0000000000000000000, 1.000000000000000000, 0.0000000000000000000 ) ) ;
#190 = CYLINDRICAL_SURFACE ( 'NONE', #137, 3.000000000000000000 ) ;
#191 = ADVANCED_FACE ( 'NONE', ( #211, #193 ), #49, .T. ) ;
#192 = DIRECTION ( 'NONE',  ( -3.491481338843133355E-15, 1.224646799147353207E-16, -1.000000000000000000 ) ) ;
#193 = FACE_OUTER_BOUND ( 'NONE', #29, .T. ) ;
#194 = SECURITY_CLASSIFICATION_LEVEL ( 'unclassified' ) ;
#195 = CC_DESIGN_PERSON_AND_ORGANIZATION_ASSIGNMENT ( #144, #103, ( #231 ) ) ;
#196 =( NAMED_UNIT ( * ) PLANE_ANGLE_UNIT ( ) SI_UNIT ( $, .RADIAN. ) );
#197 = DATE_AND_TIME ( #165, #223 ) ;
#198 = AXIS2_PLACEMENT_3D ( 'NONE', #86, #225, #175 ) ;
#199 = ORIENTED_EDGE ( 'NONE', *, *, #54, .T. ) ;
#200 = MECHANICAL_CONTEXT ( 'NONE', #166, 'mechanical' ) ;
#201 = EDGE_LOOP ( 'NONE', ( #167 ) ) ;
#202 = ORIENTED_EDGE ( 'NONE', *, *, #149, .F. ) ;
#203 = DATE_AND_TIME ( #219, #40 ) ;
#204 = CIRCLE ( 'NONE', #62, 1.324999999999999956 ) ;
#205 = DIRECTION ( 'NONE',  ( 4.275831445896958607E-31, 1.000000000000000000, 1.224646799147353207E-16 ) ) ;
#206 = CIRCLE ( 'NONE', #18, 3.000000000000000000 ) ;
#207 = CARTESIAN_POINT ( 'NONE',  ( 8.728703347107831810E-15, -3.614007241618347292E-16, 2.499999999999999556 ) ) ;
#208 = CARTESIAN_POINT ( 'NONE',  ( -3.213665694505158778E-30, 1.139139175035370503E-31, -9.204304370047053677E-16 ) ) ;
#209 = DIRECTION ( 'NONE',  ( -3.491481338843133355E-15, 1.224646799147353207E-16, -1.000000000000000000 ) ) ;
#210 = ADVANCED_FACE ( 'NONE', ( #20 ), #81, .F. ) ;
#211 = FACE_BOUND ( 'NONE', #92, .T. ) ;
#212 = TOROIDAL_SURFACE ( 'NONE', #71, 9.325000000000001066, 8.000000000000000000 ) ;
#213 = CC_DESIGN_APPROVAL ( #118, ( #102 ) ) ;
#214 = CALENDAR_DATE ( 2021, 17, 11 ) ;
#215 = ORIENTED_EDGE ( 'NONE', *, *, #141, .F. ) ;
#216 = PRODUCT_DEFINITION ( 'UNKNOWN', '', #102, #33 ) ;
#217 = ORIENTED_EDGE ( 'NONE', *, *, #34, .T. ) ;
#218 = APPLICATION_PROTOCOL_DEFINITION ( 'international standard', 'config_control_design', 1994, #166 ) ;
#219 = CALENDAR_DATE ( 2021, 17, 11 ) ;
#220 = CARTESIAN_POINT ( 'NONE',  ( 3.142333204958820020E-14, -1.734723475976807094E-15, 9.000000000000000000 ) ) ;
#221 = ORIENTED_EDGE ( 'NONE', *, *, #141, .T. ) ;
#222 = CC_DESIGN_PERSON_AND_ORGANIZATION_ASSIGNMENT ( #170, #13, ( #216 ) ) ;
#223 = LOCAL_TIME ( 13, 43, 5.000000000000000000, #89 ) ;
#224 = DIRECTION ( 'NONE',  ( 0.0000000000000000000, 1.000000000000000000, 0.0000000000000000000 ) ) ;
#225 = DIRECTION ( 'NONE',  ( -3.491481338843133355E-15, 1.224646799147353207E-16, -1.000000000000000000 ) ) ;
#226 = CC_DESIGN_APPROVAL ( #128, ( #231 ) ) ;
#227 = PRODUCT ( '997923', '997923', '', ( #200 ) ) ;
#228 = CIRCLE ( 'NONE', #124, 3.000000000000000444 ) ;
#229 = COORDINATED_UNIVERSAL_TIME_OFFSET ( 1, 0, .AHEAD. ) ;
#230 = APPROVAL_STATUS ( 'not_yet_approved' ) ;
#231 = SECURITY_CLASSIFICATION ( '', '', #194 ) ;
#232 = ADVANCED_BREP_SHAPE_REPRESENTATION ( '997923', ( #88, #238, #45 ), #94 ) ;
#233 = DIRECTION ( 'NONE',  ( 1.000000000000000000, 0.0000000000000000000, 0.0000000000000000000 ) ) ;
#234 = EDGE_LOOP ( 'NONE', ( #221 ) ) ;
#235 = COORDINATED_UNIVERSAL_TIME_OFFSET ( 1, 0, .AHEAD. ) ;
#236 = VERTEX_POINT ( 'NONE', #129 ) ;
#237 = CARTESIAN_POINT ( 'NONE',  ( 8.728703347107831810E-15, -3.614007241618347292E-16, 2.499999999999999556 ) ) ;
#238 = MANIFOLD_SOLID_BREP ( 'Corps-Déplacer/Copier1[2]', #39 ) ;
#239 = COORDINATED_UNIVERSAL_TIME_OFFSET ( 1, 0, .AHEAD. ) ;
#240 = FACE_OUTER_BOUND ( 'NONE', #80, .T. ) ;
#241 = FACE_OUTER_BOUND ( 'NONE', #234, .T. ) ;
#242 = EDGE_LOOP ( 'NONE', ( #169 ) ) ;
#243 = CARTESIAN_POINT ( 'NONE',  ( 8.728703347107828655E-15, -3.094039291938220113E-16, 2.499999999999998668 ) ) ;
ENDSEC;
END-ISO-10303-21;
