ISO-10303-21;
HEADER;
FILE_DESCRIPTION (( 'STEP AP203' ),
    '1' );
FILE_NAME ('997922.step',
    '2021-11-17T12:43:04',
    ( '' ),
    ( '' ),
    'SwSTEP 2.0',
    'SolidWorks 2019',
    '' );
FILE_SCHEMA (( 'CONFIG_CONTROL_DESIGN' ));
ENDSEC;

DATA;
#1 = DIRECTION ( 'NONE',  ( 3.491481338843133355E-15, -1.237615716775288637E-16, 1.000000000000000000 ) ) ;
#2 = COORDINATED_UNIVERSAL_TIME_OFFSET ( 1, 0, .AHEAD. ) ;
#3 = PERSON_AND_ORGANIZATION ( #99, #233 ) ;
#4 = APPROVAL_STATUS ( 'not_yet_approved' ) ;
#5 = CARTESIAN_POINT ( 'NONE',  ( 5.586370142149009424E-15, -0.8850000000000003419, 1.599999999999998535 ) ) ;
#6 =( NAMED_UNIT ( * ) SI_UNIT ( $, .STERADIAN. ) SOLID_ANGLE_UNIT ( ) );
#7 = APPLICATION_CONTEXT ( 'configuration controlled 3d designs of mechanical parts and assemblies' ) ;
#8 = MANIFOLD_SOLID_BREP ( 'Corps-Déplacer/Copier1[1]', #114 ) ;
#9 = FACE_OUTER_BOUND ( 'NONE', #179, .T. ) ;
#10 = FACE_OUTER_BOUND ( 'NONE', #131, .T. ) ;
#11 = APPROVAL ( #205, 'UNSPECIFIED' ) ;
#12 = DIRECTION ( 'NONE',  ( 4.275831445896958607E-31, 1.000000000000000000, 1.224646799147353207E-16 ) ) ;
#13 = FACE_OUTER_BOUND ( 'NONE', #91, .T. ) ;
#14 = CONICAL_SURFACE ( 'NONE', #97, 3.000000000000000444, 0.7853981633974511656 ) ;
#15 = DIRECTION ( 'NONE',  ( 0.0000000000000000000, 1.000000000000000000, 0.0000000000000000000 ) ) ;
#16 = SECURITY_CLASSIFICATION_LEVEL ( 'unclassified' ) ;
#17 = CARTESIAN_POINT ( 'NONE',  ( 3.986961649650759388E-14, -6.706778197176513801E-16, 11.41911201212892202 ) ) ;
#18 = ORIENTED_EDGE ( 'NONE', *, *, #81, .T. ) ;
#19 = APPROVAL_STATUS ( 'not_yet_approved' ) ;
#20 = AXIS2_PLACEMENT_3D ( 'NONE', #17, #110, #235 ) ;
#21 = CC_DESIGN_PERSON_AND_ORGANIZATION_ASSIGNMENT ( #151, #75, ( #72 ) ) ;
#22 = DIRECTION ( 'NONE',  ( 0.0000000000000000000, 0.0000000000000000000, 1.000000000000000000 ) ) ;
#23 = APPROVAL_DATE_TIME ( #73, #89 ) ;
#24 = EDGE_CURVE ( 'NONE', #158, #158, #77, .T. ) ;
#25 = CARTESIAN_POINT ( 'NONE',  ( 3.986961649650759388E-14, 2.999999999999999112, 11.41911201212892202 ) ) ;
#26 = PRODUCT_DEFINITION_FORMATION_WITH_SPECIFIED_SOURCE ( 'ANY', '', #212, .NOT_KNOWN. ) ;
#27 = AXIS2_PLACEMENT_3D ( 'NONE', #90, #201, #215 ) ;
#28 = EDGE_CURVE ( 'NONE', #61, #61, #82, .T. ) ;
#29 = DIRECTION ( 'NONE',  ( -4.384020783637181358E-31, -1.000000000000000000, -1.237615716775288637E-16 ) ) ;
#30 = DIRECTION ( 'NONE',  ( -3.491481338843133355E-15, 1.224646799147353207E-16, -1.000000000000000000 ) ) ;
#31 = CARTESIAN_POINT ( 'NONE',  ( 0.0000000000000000000, 0.0000000000000000000, 0.0000000000000000000 ) ) ;
#32 = APPROVAL_ROLE ( '' ) ;
#33 = DIRECTION ( 'NONE',  ( 3.491481338843133355E-15, -1.237615716775288637E-16, 1.000000000000000000 ) ) ;
#34 = APPROVAL ( #4, 'UNSPECIFIED' ) ;
#35 = AXIS2_PLACEMENT_3D ( 'NONE', #165, #223, #64 ) ;
#36 = DATE_AND_TIME ( #74, #178 ) ;
#37 = FACE_OUTER_BOUND ( 'NONE', #53, .T. ) ;
#38 = AXIS2_PLACEMENT_3D ( 'NONE', #94, #22, #189 ) ;
#39 = PRODUCT_DEFINITION_SHAPE ( 'NONE', 'NONE',  #160 ) ;
#40 = AXIS2_PLACEMENT_3D ( 'NONE', #83, #181, #12 ) ;
#41 = ADVANCED_FACE ( 'NONE', ( #13, #148 ), #60, .T. ) ;
#42 = FACE_BOUND ( 'NONE', #109, .T. ) ;
#43 = ORIENTED_EDGE ( 'NONE', *, *, #28, .F. ) ;
#44 = ORIENTED_EDGE ( 'NONE', *, *, #157, .F. ) ;
#45 = APPROVAL_PERSON_ORGANIZATION ( #93, #34, #112 ) ;
#46 = ORIENTED_EDGE ( 'NONE', *, *, #28, .T. ) ;
#47 = COORDINATED_UNIVERSAL_TIME_OFFSET ( 1, 0, .AHEAD. ) ;
#48 = DIRECTION ( 'NONE',  ( 3.491481338843133355E-15, -1.237615716775288637E-16, 1.000000000000000000 ) ) ;
#49 = PERSON_AND_ORGANIZATION_ROLE ( 'creator' ) ;
#50 = EDGE_CURVE ( 'NONE', #142, #142, #208, .T. ) ;
#51 = TOROIDAL_SURFACE ( 'NONE', #198, 8.884999999999999787, 8.000000000000000000 ) ;
#52 = CC_DESIGN_PERSON_AND_ORGANIZATION_ASSIGNMENT ( #136, #171, ( #26 ) ) ;
#53 = EDGE_LOOP ( 'NONE', ( #196 ) ) ;
#54 = ADVANCED_FACE ( 'NONE', ( #203, #222 ), #166, .T. ) ;
#55 = APPROVAL_PERSON_ORGANIZATION ( #67, #89, #192 ) ;
#56 = CARTESIAN_POINT ( 'NONE',  ( 1.396592535537253342E-13, 2.399999999999995914, 40.00000000000000000 ) ) ;
#57 = EDGE_LOOP ( 'NONE', ( #140 ) ) ;
#58 = CIRCLE ( 'NONE', #238, 1.000000000000000000 ) ;
#59 = FACE_OUTER_BOUND ( 'NONE', #162, .T. ) ;
#60 = CYLINDRICAL_SURFACE ( 'NONE', #144, 3.000000000000000000 ) ;
#61 = VERTEX_POINT ( 'NONE', #56 ) ;
#62 = DIRECTION ( 'NONE',  ( 3.491481338843133355E-15, -1.224646799147353207E-16, 1.000000000000000000 ) ) ;
#63 = DIRECTION ( 'NONE',  ( 0.0000000000000000000, 1.000000000000000000, 0.0000000000000000000 ) ) ;
#64 = DIRECTION ( 'NONE',  ( -4.275831445896958607E-31, -1.000000000000000000, -1.224646799147353207E-16 ) ) ;
#65 = EDGE_LOOP ( 'NONE', ( #236 ) ) ;
#66 = CC_DESIGN_PERSON_AND_ORGANIZATION_ASSIGNMENT ( #173, #49, ( #26 ) ) ;
#67 = PERSON_AND_ORGANIZATION ( #99, #233 ) ;
#68 = DIRECTION ( 'NONE',  ( -4.321112179779889011E-31, -1.000000000000000000, -1.237615716775288637E-16 ) ) ;
#69 = DATE_TIME_ROLE ( 'classification_date' ) ;
#70 = APPLICATION_CONTEXT ( 'configuration controlled 3d designs of mechanical parts and assemblies' ) ;
#71 = MECHANICAL_CONTEXT ( 'NONE', #70, 'mechanical' ) ;
#72 = SECURITY_CLASSIFICATION ( '', '', #16 ) ;
#73 = DATE_AND_TIME ( #228, #234 ) ;
#74 = CALENDAR_DATE ( 2021, 17, 11 ) ;
#75 = PERSON_AND_ORGANIZATION_ROLE ( 'classification_officer' ) ;
#76 = CC_DESIGN_PERSON_AND_ORGANIZATION_ASSIGNMENT ( #3, #186, ( #212 ) ) ;
#77 = CIRCLE ( 'NONE', #199, 3.000000000000000444 ) ;
#78 = AXIS2_PLACEMENT_3D ( 'NONE', #204, #239, #63 ) ;
#79 = LOCAL_TIME ( 13, 43, 4.000000000000000000, #167 ) ;
#80 = ORIENTED_EDGE ( 'NONE', *, *, #137, .F. ) ;
#81 = EDGE_CURVE ( 'NONE', #101, #101, #224, .T. ) ;
#82 = CIRCLE ( 'NONE', #78, 2.400000000000000799 ) ;
#83 = CARTESIAN_POINT ( 'NONE',  ( -6.413747168845438786E-31, 2.249639673992786412E-32, -1.836970198721029934E-16 ) ) ;
#84 = DIRECTION ( 'NONE',  ( 3.491481338843133355E-15, -1.237615716775288637E-16, 1.000000000000000000 ) ) ;
#85 = DIRECTION ( 'NONE',  ( -3.491481338843133355E-15, 1.224646799147353207E-16, -1.000000000000000000 ) ) ;
#86 = FACE_OUTER_BOUND ( 'NONE', #177, .T. ) ;
#87 = CARTESIAN_POINT ( 'NONE',  ( 0.0000000000000000000, 0.0000000000000000000, 0.0000000000000000000 ) ) ;
#88 = PERSON_AND_ORGANIZATION ( #99, #233 ) ;
#89 = APPROVAL ( #19, 'UNSPECIFIED' ) ;
#90 = CARTESIAN_POINT ( 'NONE',  ( -2.997610085516163890E-30, 1.062554541914909782E-31, -8.585496511659408373E-16 ) ) ;
#91 = EDGE_LOOP ( 'NONE', ( #182 ) ) ;
#92 = AXIS2_PLACEMENT_3D ( 'NONE', #127, #33, #164 ) ;
#93 = PERSON_AND_ORGANIZATION ( #99, #233 ) ;
#94 = CARTESIAN_POINT ( 'NONE',  ( 0.0000000000000000000, 0.0000000000000000000, 0.0000000000000000000 ) ) ;
#95 = AXIS2_PLACEMENT_3D ( 'NONE', #119, #62, #98 ) ;
#96 = SHAPE_DEFINITION_REPRESENTATION ( #39, #211 ) ;
#97 = AXIS2_PLACEMENT_3D ( 'NONE', #104, #237, #183 ) ;
#98 = DIRECTION ( 'NONE',  ( -4.275831445896958607E-31, -1.000000000000000000, -1.224646799147353207E-16 ) ) ;
#99 = PERSON ( 'UNSPECIFIED', 'UNSPECIFIED', 'UNSPECIFIED', ('UNSPECIFIED'), ('UNSPECIFIED'), ('UNSPECIFIED') ) ;
#100 =( GEOMETRIC_REPRESENTATION_CONTEXT ( 3 ) GLOBAL_UNCERTAINTY_ASSIGNED_CONTEXT ( ( #139 ) ) GLOBAL_UNIT_ASSIGNED_CONTEXT ( ( #155, #138, #6 ) ) REPRESENTATION_CONTEXT ( 'NONE', 'WORKASPACE' ) );
#101 = VERTEX_POINT ( 'NONE', #5 ) ;
#102 = DESIGN_CONTEXT ( 'detailed design', #7, 'design' ) ;
#103 = ADVANCED_FACE ( 'NONE', ( #37 ), #190, .T. ) ;
#104 = CARTESIAN_POINT ( 'NONE',  ( 1.375643647504194668E-13, -4.825108388640572095E-15, 39.40000000000000568 ) ) ;
#105 = ADVANCED_FACE ( 'NONE', ( #10 ), #108, .F. ) ;
#106 = ORIENTED_EDGE ( 'NONE', *, *, #81, .F. ) ;
#107 = CC_DESIGN_APPROVAL ( #11, ( #72 ) ) ;
#108 = PLANE ( 'NONE',  #35 ) ;
#109 = EDGE_LOOP ( 'NONE', ( #46 ) ) ;
#110 = DIRECTION ( 'NONE',  ( 3.491481338843133355E-15, -1.237615716775288637E-16, 1.000000000000000000 ) ) ;
#111 = DIRECTION ( 'NONE',  ( 3.491481338843133355E-15, -1.237615716775288637E-16, 1.000000000000000000 ) ) ;
#112 = APPROVAL_ROLE ( '' ) ;
#113 = DATE_AND_TIME ( #193, #79 ) ;
#114 = CLOSED_SHELL ( 'NONE', ( #41, #174, #197, #54, #153, #105 ) ) ;
#115 = VERTEX_POINT ( 'NONE', #135 ) ;
#116 = PERSON_AND_ORGANIZATION_ROLE ( 'creator' ) ;
#117 = LOCAL_TIME ( 13, 43, 4.000000000000000000, #133 ) ;
#118 = VERTEX_POINT ( 'NONE', #194 ) ;
#119 = CARTESIAN_POINT ( 'NONE',  ( 5.586370142149012580E-15, -2.312964634635742464E-16, 1.599999999999999645 ) ) ;
#120 = CC_DESIGN_DATE_AND_TIME_ASSIGNMENT ( #175, #154, ( #160 ) ) ;
#121 = AXIS2_PLACEMENT_3D ( 'NONE', #188, #122, #200 ) ;
#122 = DIRECTION ( 'NONE',  ( 3.491481338843133355E-15, -1.237615716775288637E-16, 1.000000000000000000 ) ) ;
#123 = PLANE ( 'NONE',  #130 ) ;
#124 = EDGE_LOOP ( 'NONE', ( #80 ) ) ;
#125 = LOCAL_TIME ( 13, 43, 4.000000000000000000, #47 ) ;
#126 = DIRECTION ( 'NONE',  ( 4.275831445896958607E-31, 1.000000000000000000, 1.224646799147353207E-16 ) ) ;
#127 = CARTESIAN_POINT ( 'NONE',  ( 2.094888803305879382E-14, -7.425694300651729849E-16, 5.999999999999998224 ) ) ;
#128 = CYLINDRICAL_SURFACE ( 'NONE', #216, 1.000000000000000000 ) ;
#129 = DIRECTION ( 'NONE',  ( -4.321112179779889011E-31, -1.000000000000000000, -1.237615716775288637E-16 ) ) ;
#130 = AXIS2_PLACEMENT_3D ( 'NONE', #163, #30, #126 ) ;
#131 = EDGE_LOOP ( 'NONE', ( #106 ) ) ;
#132 = PERSON_AND_ORGANIZATION ( #99, #233 ) ;
#133 = COORDINATED_UNIVERSAL_TIME_OFFSET ( 1, 0, .AHEAD. ) ;
#134 = CIRCLE ( 'NONE', #27, 1.000000000000000000 ) ;
#135 = CARTESIAN_POINT ( 'NONE',  ( 5.586370142149008635E-15, -1.000000000000000222, 1.599999999999998535 ) ) ;
#136 = PERSON_AND_ORGANIZATION ( #99, #233 ) ;
#137 = EDGE_CURVE ( 'NONE', #115, #115, #58, .T. ) ;
#138 =( NAMED_UNIT ( * ) PLANE_ANGLE_UNIT ( ) SI_UNIT ( $, .RADIAN. ) );
#139 = UNCERTAINTY_MEASURE_WITH_UNIT (LENGTH_MEASURE( 1.000000000000000082E-05 ), #155, 'distance_accuracy_value', 'NONE');
#140 = ORIENTED_EDGE ( 'NONE', *, *, #24, .F. ) ;
#141 = CARTESIAN_POINT ( 'NONE',  ( 1.375643647504194668E-13, -4.825108388640572095E-15, 39.40000000000000568 ) ) ;
#142 = VERTEX_POINT ( 'NONE', #176 ) ;
#143 = EDGE_LOOP ( 'NONE', ( #202 ) ) ;
#144 = AXIS2_PLACEMENT_3D ( 'NONE', #87, #147, #220 ) ;
#145 = PLANE ( 'NONE',  #40 ) ;
#146 = EDGE_CURVE ( 'NONE', #118, #118, #134, .T. ) ;
#147 = DIRECTION ( 'NONE',  ( -3.491481338843133355E-15, 1.224646799147353207E-16, -1.000000000000000000 ) ) ;
#148 = FACE_OUTER_BOUND ( 'NONE', #143, .T. ) ;
#149 = CARTESIAN_POINT ( 'NONE',  ( 2.094888803305879067E-14, 0.0000000000000000000, 5.999999999999997335 ) ) ;
#150 = CARTESIAN_POINT ( 'NONE',  ( 0.0000000000000000000, 0.0000000000000000000, 0.0000000000000000000 ) ) ;
#151 = PERSON_AND_ORGANIZATION ( #99, #233 ) ;
#152 = CC_DESIGN_APPROVAL ( #34, ( #26 ) ) ;
#153 = ADVANCED_FACE ( 'NONE', ( #86, #219 ), #51, .F. ) ;
#154 = DATE_TIME_ROLE ( 'creation_date' ) ;
#155 =( LENGTH_UNIT ( ) NAMED_UNIT ( * ) SI_UNIT ( .MILLI., .METRE. ) );
#156 = CLOSED_SHELL ( 'NONE', ( #103, #170, #241 ) ) ;
#157 = EDGE_CURVE ( 'NONE', #195, #195, #232, .T. ) ;
#158 = VERTEX_POINT ( 'NONE', #240 ) ;
#159 = EDGE_LOOP ( 'NONE', ( #18 ) ) ;
#160 = PRODUCT_DEFINITION ( 'UNKNOWN', '', #26, #102 ) ;
#161 = FACE_OUTER_BOUND ( 'NONE', #57, .T. ) ;
#162 = EDGE_LOOP ( 'NONE', ( #180 ) ) ;
#163 = CARTESIAN_POINT ( 'NONE',  ( 1.396592535537253342E-13, 1.799711739194222561E-32, 40.00000000000000000 ) ) ;
#164 = DIRECTION ( 'NONE',  ( 0.0000000000000000000, -1.000000000000000000, 0.0000000000000000000 ) ) ;
#165 = CARTESIAN_POINT ( 'NONE',  ( 5.586370142149012580E-15, -2.312964634635742464E-16, 1.599999999999999645 ) ) ;
#166 = CYLINDRICAL_SURFACE ( 'NONE', #169, 0.8849999999999996758 ) ;
#167 = COORDINATED_UNIVERSAL_TIME_OFFSET ( 1, 0, .AHEAD. ) ;
#168 = FACE_OUTER_BOUND ( 'NONE', #124, .T. ) ;
#169 = AXIS2_PLACEMENT_3D ( 'NONE', #150, #111, #129 ) ;
#170 = ADVANCED_FACE ( 'NONE', ( #218, #168 ), #128, .T. ) ;
#171 = PERSON_AND_ORGANIZATION_ROLE ( 'design_supplier' ) ;
#172 = COORDINATED_UNIVERSAL_TIME_OFFSET ( 1, 0, .AHEAD. ) ;
#173 = PERSON_AND_ORGANIZATION ( #99, #233 ) ;
#174 = ADVANCED_FACE ( 'NONE', ( #42, #161 ), #14, .T. ) ;
#175 = DATE_AND_TIME ( #227, #125 ) ;
#176 = CARTESIAN_POINT ( 'NONE',  ( 2.094888803305879382E-14, -0.8850000000000001199, 5.999999999999998224 ) ) ;
#177 = EDGE_LOOP ( 'NONE', ( #44 ) ) ;
#178 = LOCAL_TIME ( 13, 43, 4.000000000000000000, #2 ) ;
#179 = EDGE_LOOP ( 'NONE', ( #43 ) ) ;
#180 = ORIENTED_EDGE ( 'NONE', *, *, #146, .F. ) ;
#181 = DIRECTION ( 'NONE',  ( -3.491481338843133355E-15, 1.224646799147353207E-16, -1.000000000000000000 ) ) ;
#182 = ORIENTED_EDGE ( 'NONE', *, *, #24, .T. ) ;
#183 = DIRECTION ( 'NONE',  ( 0.0000000000000000000, 1.000000000000000000, 0.0000000000000000000 ) ) ;
#184 = EDGE_LOOP ( 'NONE', ( #242 ) ) ;
#185 = APPROVAL_DATE_TIME ( #209, #11 ) ;
#186 = PERSON_AND_ORGANIZATION_ROLE ( 'design_owner' ) ;
#187 = CARTESIAN_POINT ( 'NONE',  ( 5.586370142149009424E-15, -1.980185146840460291E-16, 1.599999999999998757 ) ) ;
#188 = CARTESIAN_POINT ( 'NONE',  ( 5.586370142149009424E-15, -1.980185146840460291E-16, 1.599999999999998757 ) ) ;
#189 = DIRECTION ( 'NONE',  ( 1.000000000000000000, 0.0000000000000000000, 0.0000000000000000000 ) ) ;
#190 = PLANE ( 'NONE',  #95 ) ;
#191 = APPROVAL_DATE_TIME ( #113, #34 ) ;
#192 = APPROVAL_ROLE ( '' ) ;
#193 = CALENDAR_DATE ( 2021, 17, 11 ) ;
#194 = CARTESIAN_POINT ( 'NONE',  ( -3.429721303494152966E-30, -1.000000000000000000, -9.823112228434696024E-16 ) ) ;
#195 = VERTEX_POINT ( 'NONE', #25 ) ;
#196 = ORIENTED_EDGE ( 'NONE', *, *, #137, .T. ) ;
#197 = ADVANCED_FACE ( 'NONE', ( #9 ), #123, .F. ) ;
#198 = AXIS2_PLACEMENT_3D ( 'NONE', #149, #48, #29 ) ;
#199 = AXIS2_PLACEMENT_3D ( 'NONE', #141, #85, #15 ) ;
#200 = DIRECTION ( 'NONE',  ( 0.0000000000000000000, -1.000000000000000000, -2.450174401097184755E-16 ) ) ;
#201 = DIRECTION ( 'NONE',  ( 3.491481338843133355E-15, -1.237615716775288637E-16, 1.000000000000000000 ) ) ;
#202 = ORIENTED_EDGE ( 'NONE', *, *, #157, .T. ) ;
#203 = FACE_OUTER_BOUND ( 'NONE', #159, .T. ) ;
#204 = CARTESIAN_POINT ( 'NONE',  ( 1.396592535537253342E-13, -4.898587196589413026E-15, 40.00000000000000000 ) ) ;
#205 = APPROVAL_STATUS ( 'not_yet_approved' ) ;
#206 = CALENDAR_DATE ( 2021, 17, 11 ) ;
#207 = APPLICATION_PROTOCOL_DEFINITION ( 'international standard', 'config_control_design', 1994, #7 ) ;
#208 = CIRCLE ( 'NONE', #92, 0.8849999999999993427 ) ;
#209 = DATE_AND_TIME ( #206, #117 ) ;
#210 = APPROVAL_PERSON_ORGANIZATION ( #132, #11, #32 ) ;
#211 = ADVANCED_BREP_SHAPE_REPRESENTATION ( '997922', ( #8, #229, #38 ), #100 ) ;
#212 = PRODUCT ( '997922', '997922', '', ( #71 ) ) ;
#213 = CC_DESIGN_PERSON_AND_ORGANIZATION_ASSIGNMENT ( #88, #116, ( #160 ) ) ;
#214 = CC_DESIGN_APPROVAL ( #89, ( #160 ) ) ;
#215 = DIRECTION ( 'NONE',  ( -4.321112179779889011E-31, -1.000000000000000000, -1.237615716775287651E-16 ) ) ;
#216 = AXIS2_PLACEMENT_3D ( 'NONE', #31, #1, #68 ) ;
#217 = PRODUCT_RELATED_PRODUCT_CATEGORY ( 'detail', '', ( #212 ) ) ;
#218 = FACE_OUTER_BOUND ( 'NONE', #184, .T. ) ;
#219 = FACE_OUTER_BOUND ( 'NONE', #243, .T. ) ;
#220 = DIRECTION ( 'NONE',  ( 4.275831445896959482E-31, 1.000000000000000000, 1.224646799147353207E-16 ) ) ;
#221 = DIRECTION ( 'NONE',  ( -7.703719777548943412E-31, -1.000000000000000000, -2.168404344971008868E-16 ) ) ;
#222 = FACE_OUTER_BOUND ( 'NONE', #65, .T. ) ;
#223 = DIRECTION ( 'NONE',  ( 3.491481338843133355E-15, -1.224646799147353207E-16, 1.000000000000000000 ) ) ;
#224 = CIRCLE ( 'NONE', #121, 0.8850000000000001199 ) ;
#225 = ORIENTED_EDGE ( 'NONE', *, *, #50, .T. ) ;
#226 = CC_DESIGN_SECURITY_CLASSIFICATION ( #72, ( #26 ) ) ;
#227 = CALENDAR_DATE ( 2021, 17, 11 ) ;
#228 = CALENDAR_DATE ( 2021, 17, 11 ) ;
#229 = MANIFOLD_SOLID_BREP ( 'Corps-Déplacer/Copier1[2]', #156 ) ;
#230 = APPLICATION_PROTOCOL_DEFINITION ( 'international standard', 'config_control_design', 1994, #70 ) ;
#231 = CC_DESIGN_DATE_AND_TIME_ASSIGNMENT ( #36, #69, ( #72 ) ) ;
#232 = CIRCLE ( 'NONE', #20, 3.000000000000000000 ) ;
#233 = ORGANIZATION ( 'UNSPECIFIED', 'UNSPECIFIED', '' ) ;
#234 = LOCAL_TIME ( 13, 43, 4.000000000000000000, #172 ) ;
#235 = DIRECTION ( 'NONE',  ( 0.0000000000000000000, 1.000000000000000000, 0.0000000000000000000 ) ) ;
#236 = ORIENTED_EDGE ( 'NONE', *, *, #50, .F. ) ;
#237 = DIRECTION ( 'NONE',  ( -3.491481338843133355E-15, 1.224646799147353207E-16, -1.000000000000000000 ) ) ;
#238 = AXIS2_PLACEMENT_3D ( 'NONE', #187, #84, #221 ) ;
#239 = DIRECTION ( 'NONE',  ( -3.491481338843133355E-15, 1.224646799147353207E-16, -1.000000000000000000 ) ) ;
#240 = CARTESIAN_POINT ( 'NONE',  ( 1.375643647504194668E-13, 2.999999999999995559, 39.40000000000000568 ) ) ;
#241 = ADVANCED_FACE ( 'NONE', ( #59 ), #145, .T. ) ;
#242 = ORIENTED_EDGE ( 'NONE', *, *, #146, .T. ) ;
#243 = EDGE_LOOP ( 'NONE', ( #225 ) ) ;
ENDSEC;
END-ISO-10303-21;
