ISO-10303-21;
HEADER;
FILE_DESCRIPTION (( 'STEP AP203' ),
    '1' );
FILE_NAME ('997921.step',
    '2021-11-17T12:43:04',
    ( '' ),
    ( '' ),
    'SwSTEP 2.0',
    'SolidWorks 2019',
    '' );
FILE_SCHEMA (( 'CONFIG_CONTROL_DESIGN' ));
ENDSEC;

DATA;
#1 = DIRECTION ( 'NONE',  ( 0.0000000000000000000, -1.000000000000000000, 0.0000000000000000000 ) ) ;
#2 = DIRECTION ( 'NONE',  ( 3.491481338843133355E-15, -1.237615716775288637E-16, 1.000000000000000000 ) ) ;
#3 = CARTESIAN_POINT ( 'NONE',  ( 5.237222008264696877E-15, -0.6350000000000003419, 1.499999999999999112 ) ) ;
#4 = CARTESIAN_POINT ( 'NONE',  ( -2.889582281021666796E-30, 1.024262225354679641E-31, -8.276092582465586214E-16 ) ) ;
#5 = LOCAL_TIME ( 13, 43, 4.000000000000000000, #142 ) ;
#6 = AXIS2_PLACEMENT_3D ( 'NONE', #4, #211, #231 ) ;
#7 = APPLICATION_CONTEXT ( 'configuration controlled 3d designs of mechanical parts and assemblies' ) ;
#8 = DIRECTION ( 'NONE',  ( 0.0000000000000000000, 1.000000000000000000, 0.0000000000000000000 ) ) ;
#9 = APPROVAL ( #140, 'UNSPECIFIED' ) ;
#10 = PERSON_AND_ORGANIZATION_ROLE ( 'design_owner' ) ;
#11 = DIRECTION ( 'NONE',  ( 4.275831445896959482E-31, 1.000000000000000000, 1.224646799147353207E-16 ) ) ;
#12 = APPROVAL_ROLE ( '' ) ;
#13 = DIRECTION ( 'NONE',  ( -3.491481338843133355E-15, 1.224646799147353207E-16, -1.000000000000000000 ) ) ;
#14 = ORIENTED_EDGE ( 'NONE', *, *, #115, .T. ) ;
#15 = PERSON_AND_ORGANIZATION ( #189, #116 ) ;
#16 = PLANE ( 'NONE',  #43 ) ;
#17 = CC_DESIGN_APPROVAL ( #9, ( #118 ) ) ;
#18 = ADVANCED_FACE ( 'NONE', ( #107, #87 ), #144, .T. ) ;
#19 = FACE_OUTER_BOUND ( 'NONE', #72, .T. ) ;
#20 = CLOSED_SHELL ( 'NONE', ( #98, #214, #178 ) ) ;
#21 = DIRECTION ( 'NONE',  ( -3.491481338843133355E-15, 1.224646799147353207E-16, -1.000000000000000000 ) ) ;
#22 = EDGE_CURVE ( 'NONE', #207, #207, #182, .T. ) ;
#23 = FACE_OUTER_BOUND ( 'NONE', #130, .T. ) ;
#24 = FACE_OUTER_BOUND ( 'NONE', #241, .T. ) ;
#25 = DIRECTION ( 'NONE',  ( 3.491481338843133355E-15, -1.237615716775288637E-16, 1.000000000000000000 ) ) ;
#26 = APPROVAL ( #89, 'UNSPECIFIED' ) ;
#27 = FACE_BOUND ( 'NONE', #40, .T. ) ;
#28 = EDGE_LOOP ( 'NONE', ( #223 ) ) ;
#29 = ORIENTED_EDGE ( 'NONE', *, *, #76, .F. ) ;
#30 = ORIENTED_EDGE ( 'NONE', *, *, #230, .F. ) ;
#31 = PERSON_AND_ORGANIZATION ( #189, #116 ) ;
#32 = EDGE_LOOP ( 'NONE', ( #233 ) ) ;
#33 = CC_DESIGN_PERSON_AND_ORGANIZATION_ASSIGNMENT ( #68, #148, ( #118 ) ) ;
#34 = CARTESIAN_POINT ( 'NONE',  ( 5.237222008264696877E-15, -0.7500000000000002220, 1.499999999999999112 ) ) ;
#35 = CC_DESIGN_DATE_AND_TIME_ASSIGNMENT ( #202, #66, ( #218 ) ) ;
#36 = FACE_OUTER_BOUND ( 'NONE', #203, .T. ) ;
#37 = CARTESIAN_POINT ( 'NONE',  ( 1.571166602479409379E-14, 0.0000000000000000000, 4.499999999999998224 ) ) ;
#38 = AXIS2_PLACEMENT_3D ( 'NONE', #67, #221, #46 ) ;
#39 = CC_DESIGN_PERSON_AND_ORGANIZATION_ASSIGNMENT ( #234, #240, ( #82 ) ) ;
#40 = EDGE_LOOP ( 'NONE', ( #120 ) ) ;
#41 = LOCAL_TIME ( 13, 43, 4.000000000000000000, #99 ) ;
#42 = COORDINATED_UNIVERSAL_TIME_OFFSET ( 1, 0, .AHEAD. ) ;
#43 = AXIS2_PLACEMENT_3D ( 'NONE', #166, #90, #201 ) ;
#44 = LOCAL_TIME ( 13, 43, 4.000000000000000000, #183 ) ;
#45 = DIRECTION ( 'NONE',  ( -3.491481338843133355E-15, 1.224646799147353207E-16, -1.000000000000000000 ) ) ;
#46 = DIRECTION ( 'NONE',  ( 0.0000000000000000000, -1.000000000000000000, 0.0000000000000000000 ) ) ;
#47 = CARTESIAN_POINT ( 'NONE',  ( 5.237222008264696877E-15, -1.856423575162931969E-16, 1.499999999999999112 ) ) ;
#48 = EDGE_CURVE ( 'NONE', #117, #117, #154, .T. ) ;
#49 = CARTESIAN_POINT ( 'NONE',  ( 1.375643647504194668E-13, -4.825108388640572095E-15, 39.40000000000000568 ) ) ;
#50 = CARTESIAN_POINT ( 'NONE',  ( 1.375643647504194668E-13, 2.999999999999995559, 39.40000000000000568 ) ) ;
#51 = DIRECTION ( 'NONE',  ( 3.491481338843133355E-15, -1.237615716775288637E-16, 1.000000000000000000 ) ) ;
#52 = AXIS2_PLACEMENT_3D ( 'NONE', #75, #228, #176 ) ;
#53 = APPROVAL_PERSON_ORGANIZATION ( #242, #9, #12 ) ;
#54 = CARTESIAN_POINT ( 'NONE',  ( 0.0000000000000000000, 0.0000000000000000000, 0.0000000000000000000 ) ) ;
#55 = EDGE_CURVE ( 'NONE', #108, #108, #175, .T. ) ;
#56 = TOROIDAL_SURFACE ( 'NONE', #96, 8.634999999999999787, 8.000000000000000000 ) ;
#57 = ADVANCED_FACE ( 'NONE', ( #190 ), #16, .F. ) ;
#58 = ADVANCED_BREP_SHAPE_REPRESENTATION ( '997921', ( #129, #122, #191 ), #59 ) ;
#59 =( GEOMETRIC_REPRESENTATION_CONTEXT ( 3 ) GLOBAL_UNCERTAINTY_ASSIGNED_CONTEXT ( ( #74 ) ) GLOBAL_UNIT_ASSIGNED_CONTEXT ( ( #137, #198, #97 ) ) REPRESENTATION_CONTEXT ( 'NONE', 'WORKASPACE' ) );
#60 = PERSON_AND_ORGANIZATION_ROLE ( 'creator' ) ;
#61 = AXIS2_PLACEMENT_3D ( 'NONE', #104, #45, #224 ) ;
#62 = ORIENTED_EDGE ( 'NONE', *, *, #48, .F. ) ;
#63 = APPROVAL_PERSON_ORGANIZATION ( #15, #26, #146 ) ;
#64 = CALENDAR_DATE ( 2021, 17, 11 ) ;
#65 = ORIENTED_EDGE ( 'NONE', *, *, #150, .F. ) ;
#66 = DATE_TIME_ROLE ( 'classification_date' ) ;
#67 = CARTESIAN_POINT ( 'NONE',  ( 5.237222008264696877E-15, -1.856423575162931969E-16, 1.499999999999999112 ) ) ;
#68 = PERSON_AND_ORGANIZATION ( #189, #116 ) ;
#69 = ORIENTED_EDGE ( 'NONE', *, *, #55, .F. ) ;
#70 = CONICAL_SURFACE ( 'NONE', #83, 3.000000000000000444, 0.7853981633974511656 ) ;
#71 = CC_DESIGN_APPROVAL ( #170, ( #82 ) ) ;
#72 = EDGE_LOOP ( 'NONE', ( #65 ) ) ;
#73 = CC_DESIGN_PERSON_AND_ORGANIZATION_ASSIGNMENT ( #31, #124, ( #218 ) ) ;
#74 = UNCERTAINTY_MEASURE_WITH_UNIT (LENGTH_MEASURE( 1.000000000000000082E-05 ), #137, 'distance_accuracy_value', 'NONE');
#75 = CARTESIAN_POINT ( 'NONE',  ( 1.396592535537253342E-13, -4.898587196589413026E-15, 40.00000000000000000 ) ) ;
#76 = EDGE_CURVE ( 'NONE', #180, #180, #77, .T. ) ;
#77 = CIRCLE ( 'NONE', #157, 0.6350000000000006750 ) ;
#78 = AXIS2_PLACEMENT_3D ( 'NONE', #194, #2, #92 ) ;
#79 = CARTESIAN_POINT ( 'NONE',  ( -3.213665694505158078E-30, -0.7499999999999997780, -9.204304370047051705E-16 ) ) ;
#80 = ADVANCED_FACE ( 'NONE', ( #27, #149 ), #70, .T. ) ;
#81 = VERTEX_POINT ( 'NONE', #139 ) ;
#82 = PRODUCT_DEFINITION_FORMATION_WITH_SPECIFIED_SOURCE ( 'ANY', '', #205, .NOT_KNOWN. ) ;
#83 = AXIS2_PLACEMENT_3D ( 'NONE', #49, #102, #8 ) ;
#84 = FACE_OUTER_BOUND ( 'NONE', #28, .T. ) ;
#85 = PERSON_AND_ORGANIZATION ( #189, #116 ) ;
#86 = CC_DESIGN_PERSON_AND_ORGANIZATION_ASSIGNMENT ( #85, #60, ( #82 ) ) ;
#87 = FACE_OUTER_BOUND ( 'NONE', #88, .T. ) ;
#88 = EDGE_LOOP ( 'NONE', ( #14 ) ) ;
#89 = APPROVAL_STATUS ( 'not_yet_approved' ) ;
#90 = DIRECTION ( 'NONE',  ( 3.491481338843133355E-15, -1.224646799147353207E-16, 1.000000000000000000 ) ) ;
#91 = DIRECTION ( 'NONE',  ( 4.275831445896958607E-31, 1.000000000000000000, 1.224646799147353207E-16 ) ) ;
#92 = DIRECTION ( 'NONE',  ( -4.321112179779889011E-31, -1.000000000000000000, -1.237615716775288637E-16 ) ) ;
#93 = CARTESIAN_POINT ( 'NONE',  ( 1.396592535537253342E-13, 1.799711739194222561E-32, 40.00000000000000000 ) ) ;
#94 = PLANE ( 'NONE',  #236 ) ;
#95 = CC_DESIGN_SECURITY_CLASSIFICATION ( #218, ( #82 ) ) ;
#96 = AXIS2_PLACEMENT_3D ( 'NONE', #37, #51, #135 ) ;
#97 =( NAMED_UNIT ( * ) SI_UNIT ( $, .STERADIAN. ) SOLID_ANGLE_UNIT ( ) );
#98 = ADVANCED_FACE ( 'NONE', ( #84 ), #162, .T. ) ;
#99 = COORDINATED_UNIVERSAL_TIME_OFFSET ( 1, 0, .AHEAD. ) ;
#100 = ORIENTED_EDGE ( 'NONE', *, *, #22, .F. ) ;
#101 = CALENDAR_DATE ( 2021, 17, 11 ) ;
#102 = DIRECTION ( 'NONE',  ( -3.491481338843133355E-15, 1.224646799147353207E-16, -1.000000000000000000 ) ) ;
#103 = ORIENTED_EDGE ( 'NONE', *, *, #76, .T. ) ;
#104 = CARTESIAN_POINT ( 'NONE',  ( 1.375643647504194668E-13, -4.825108388640572095E-15, 39.40000000000000568 ) ) ;
#105 = EDGE_LOOP ( 'NONE', ( #29 ) ) ;
#106 = COORDINATED_UNIVERSAL_TIME_OFFSET ( 1, 0, .AHEAD. ) ;
#107 = FACE_OUTER_BOUND ( 'NONE', #32, .T. ) ;
#108 = VERTEX_POINT ( 'NONE', #50 ) ;
#109 = CIRCLE ( 'NONE', #6, 0.7499999999999997780 ) ;
#110 = LOCAL_TIME ( 13, 43, 4.000000000000000000, #106 ) ;
#111 = DIRECTION ( 'NONE',  ( 0.0000000000000000000, 1.000000000000000000, 0.0000000000000000000 ) ) ;
#112 = SHAPE_DEFINITION_REPRESENTATION ( #167, #58 ) ;
#113 = DIRECTION ( 'NONE',  ( -3.491481338843133355E-15, 1.224646799147353207E-16, -1.000000000000000000 ) ) ;
#114 = AXIS2_PLACEMENT_3D ( 'NONE', #152, #21, #91 ) ;
#115 = EDGE_CURVE ( 'NONE', #81, #81, #141, .T. ) ;
#116 = ORGANIZATION ( 'UNSPECIFIED', 'UNSPECIFIED', '' ) ;
#117 = VERTEX_POINT ( 'NONE', #34 ) ;
#118 = PRODUCT_DEFINITION ( 'UNKNOWN', '', #82, #227 ) ;
#119 = VERTEX_POINT ( 'NONE', #156 ) ;
#120 = ORIENTED_EDGE ( 'NONE', *, *, #230, .T. ) ;
#121 = DATE_AND_TIME ( #64, #136 ) ;
#122 = MANIFOLD_SOLID_BREP ( 'Corps-Déplacer/Copier1[2]', #20 ) ;
#123 = MECHANICAL_CONTEXT ( 'NONE', #7, 'mechanical' ) ;
#124 = PERSON_AND_ORGANIZATION_ROLE ( 'classification_officer' ) ;
#125 = CARTESIAN_POINT ( 'NONE',  ( 5.237222008264697666E-15, -2.168404344971007882E-16, 1.499999999999999334 ) ) ;
#126 = CALENDAR_DATE ( 2021, 17, 11 ) ;
#127 = DIRECTION ( 'NONE',  ( 0.0000000000000000000, -1.000000000000000000, 0.0000000000000000000 ) ) ;
#128 = APPROVAL_DATE_TIME ( #165, #9 ) ;
#129 = MANIFOLD_SOLID_BREP ( 'Corps-Déplacer/Copier1[1]', #155 ) ;
#130 = EDGE_LOOP ( 'NONE', ( #164 ) ) ;
#131 = EDGE_LOOP ( 'NONE', ( #103 ) ) ;
#132 = CC_DESIGN_APPROVAL ( #26, ( #218 ) ) ;
#133 = DIRECTION ( 'NONE',  ( 3.491481338843133355E-15, -1.237615716775288637E-16, 1.000000000000000000 ) ) ;
#134 = CC_DESIGN_DATE_AND_TIME_ASSIGNMENT ( #121, #145, ( #118 ) ) ;
#135 = DIRECTION ( 'NONE',  ( -4.384966209003236228E-31, -1.000000000000000000, -1.237615716775288637E-16 ) ) ;
#136 = LOCAL_TIME ( 13, 43, 4.000000000000000000, #42 ) ;
#137 =( LENGTH_UNIT ( ) NAMED_UNIT ( * ) SI_UNIT ( .MILLI., .METRE. ) );
#138 = CARTESIAN_POINT ( 'NONE',  ( 1.571166602479409379E-14, -0.6350000000000012301, 4.499999999999998224 ) ) ;
#139 = CARTESIAN_POINT ( 'NONE',  ( 3.553847712424456600E-14, 2.999999999999999112, 10.17862439328399127 ) ) ;
#140 = APPROVAL_STATUS ( 'not_yet_approved' ) ;
#141 = CIRCLE ( 'NONE', #216, 3.000000000000000000 ) ;
#142 = COORDINATED_UNIVERSAL_TIME_OFFSET ( 1, 0, .AHEAD. ) ;
#143 = CIRCLE ( 'NONE', #52, 2.400000000000000799 ) ;
#144 = CYLINDRICAL_SURFACE ( 'NONE', #169, 3.000000000000000000 ) ;
#145 = DATE_TIME_ROLE ( 'creation_date' ) ;
#146 = APPROVAL_ROLE ( '' ) ;
#147 = EDGE_LOOP ( 'NONE', ( #100 ) ) ;
#148 = PERSON_AND_ORGANIZATION_ROLE ( 'creator' ) ;
#149 = FACE_OUTER_BOUND ( 'NONE', #235, .T. ) ;
#150 = EDGE_CURVE ( 'NONE', #181, #181, #109, .T. ) ;
#151 = CYLINDRICAL_SURFACE ( 'NONE', #78, 0.7499999999999998890 ) ;
#152 = CARTESIAN_POINT ( 'NONE',  ( -6.413747168845438786E-31, 2.249639673992786412E-32, -1.836970198721029934E-16 ) ) ;
#153 = FACE_OUTER_BOUND ( 'NONE', #206, .T. ) ;
#154 = CIRCLE ( 'NONE', #38, 0.7500000000000000000 ) ;
#155 = CLOSED_SHELL ( 'NONE', ( #18, #80, #217, #158, #160, #57 ) ) ;
#156 = CARTESIAN_POINT ( 'NONE',  ( 1.396592535537253342E-13, 2.399999999999995914, 40.00000000000000000 ) ) ;
#157 = AXIS2_PLACEMENT_3D ( 'NONE', #171, #25, #1 ) ;
#158 = ADVANCED_FACE ( 'NONE', ( #153, #213 ), #195, .T. ) ;
#159 = DATE_AND_TIME ( #219, #44 ) ;
#160 = ADVANCED_FACE ( 'NONE', ( #23, #209 ), #56, .F. ) ;
#161 = DIRECTION ( 'NONE',  ( 1.000000000000000000, 0.0000000000000000000, 0.0000000000000000000 ) ) ;
#162 = PLANE ( 'NONE',  #208 ) ;
#163 = CARTESIAN_POINT ( 'NONE',  ( 0.0000000000000000000, 0.0000000000000000000, 0.0000000000000000000 ) ) ;
#164 = ORIENTED_EDGE ( 'NONE', *, *, #115, .F. ) ;
#165 = DATE_AND_TIME ( #126, #41 ) ;
#166 = CARTESIAN_POINT ( 'NONE',  ( 5.237222008264697666E-15, -2.168404344971007882E-16, 1.499999999999999334 ) ) ;
#167 = PRODUCT_DEFINITION_SHAPE ( 'NONE', 'NONE',  #118 ) ;
#168 = ORIENTED_EDGE ( 'NONE', *, *, #22, .T. ) ;
#169 = AXIS2_PLACEMENT_3D ( 'NONE', #185, #13, #11 ) ;
#170 = APPROVAL ( #200, 'UNSPECIFIED' ) ;
#171 = CARTESIAN_POINT ( 'NONE',  ( 1.571166602479409379E-14, -5.569270725488795908E-16, 4.499999999999998224 ) ) ;
#172 = DIRECTION ( 'NONE',  ( -4.275831445896958607E-31, -1.000000000000000000, -1.224646799147353207E-16 ) ) ;
#173 = FACE_OUTER_BOUND ( 'NONE', #215, .T. ) ;
#174 = CC_DESIGN_PERSON_AND_ORGANIZATION_ASSIGNMENT ( #184, #10, ( #205 ) ) ;
#175 = CIRCLE ( 'NONE', #61, 3.000000000000000444 ) ;
#176 = DIRECTION ( 'NONE',  ( 0.0000000000000000000, 1.000000000000000000, 0.0000000000000000000 ) ) ;
#177 = DIRECTION ( 'NONE',  ( 4.275831445896958607E-31, 1.000000000000000000, 1.224646799147353207E-16 ) ) ;
#178 = ADVANCED_FACE ( 'NONE', ( #19 ), #229, .T. ) ;
#179 = APPROVAL_PERSON_ORGANIZATION ( #199, #170, #222 ) ;
#180 = VERTEX_POINT ( 'NONE', #138 ) ;
#181 = VERTEX_POINT ( 'NONE', #79 ) ;
#182 = CIRCLE ( 'NONE', #197, 0.6350000000000001199 ) ;
#183 = COORDINATED_UNIVERSAL_TIME_OFFSET ( 1, 0, .AHEAD. ) ;
#184 = PERSON_AND_ORGANIZATION ( #189, #116 ) ;
#185 = CARTESIAN_POINT ( 'NONE',  ( 0.0000000000000000000, 0.0000000000000000000, 0.0000000000000000000 ) ) ;
#186 = APPLICATION_PROTOCOL_DEFINITION ( 'international standard', 'config_control_design', 1994, #232 ) ;
#187 = ORIENTED_EDGE ( 'NONE', *, *, #150, .T. ) ;
#188 = CALENDAR_DATE ( 2021, 17, 11 ) ;
#189 = PERSON ( 'UNSPECIFIED', 'UNSPECIFIED', 'UNSPECIFIED', ('UNSPECIFIED'), ('UNSPECIFIED'), ('UNSPECIFIED') ) ;
#190 = FACE_OUTER_BOUND ( 'NONE', #147, .T. ) ;
#191 = AXIS2_PLACEMENT_3D ( 'NONE', #163, #237, #161 ) ;
#192 = DATE_AND_TIME ( #101, #5 ) ;
#193 = DIRECTION ( 'NONE',  ( -4.321112179779889011E-31, -1.000000000000000000, -1.237615716775288637E-16 ) ) ;
#194 = CARTESIAN_POINT ( 'NONE',  ( 0.0000000000000000000, 0.0000000000000000000, 0.0000000000000000000 ) ) ;
#195 = CYLINDRICAL_SURFACE ( 'NONE', #226, 0.6350000000000003419 ) ;
#196 = APPLICATION_PROTOCOL_DEFINITION ( 'international standard', 'config_control_design', 1994, #7 ) ;
#197 = AXIS2_PLACEMENT_3D ( 'NONE', #47, #243, #127 ) ;
#198 =( NAMED_UNIT ( * ) PLANE_ANGLE_UNIT ( ) SI_UNIT ( $, .RADIAN. ) );
#199 = PERSON_AND_ORGANIZATION ( #189, #116 ) ;
#200 = APPROVAL_STATUS ( 'not_yet_approved' ) ;
#201 = DIRECTION ( 'NONE',  ( -4.275831445896958607E-31, -1.000000000000000000, -1.224646799147353207E-16 ) ) ;
#202 = DATE_AND_TIME ( #188, #110 ) ;
#203 = EDGE_LOOP ( 'NONE', ( #62 ) ) ;
#204 = SECURITY_CLASSIFICATION_LEVEL ( 'unclassified' ) ;
#205 = PRODUCT ( '997921', '997921', '', ( #123 ) ) ;
#206 = EDGE_LOOP ( 'NONE', ( #168 ) ) ;
#207 = VERTEX_POINT ( 'NONE', #3 ) ;
#208 = AXIS2_PLACEMENT_3D ( 'NONE', #125, #238, #172 ) ;
#209 = FACE_OUTER_BOUND ( 'NONE', #131, .T. ) ;
#210 = APPROVAL_DATE_TIME ( #192, #26 ) ;
#211 = DIRECTION ( 'NONE',  ( 3.491481338843133355E-15, -1.237615716775288637E-16, 1.000000000000000000 ) ) ;
#212 = DIRECTION ( 'NONE',  ( 3.491481338843133355E-15, -1.237615716775288637E-16, 1.000000000000000000 ) ) ;
#213 = FACE_OUTER_BOUND ( 'NONE', #105, .T. ) ;
#214 = ADVANCED_FACE ( 'NONE', ( #173, #36 ), #151, .T. ) ;
#215 = EDGE_LOOP ( 'NONE', ( #187 ) ) ;
#216 = AXIS2_PLACEMENT_3D ( 'NONE', #225, #212, #111 ) ;
#217 = ADVANCED_FACE ( 'NONE', ( #24 ), #94, .F. ) ;
#218 = SECURITY_CLASSIFICATION ( '', '', #204 ) ;
#219 = CALENDAR_DATE ( 2021, 17, 11 ) ;
#220 = APPROVAL_DATE_TIME ( #159, #170 ) ;
#221 = DIRECTION ( 'NONE',  ( 3.491481338843133355E-15, -1.237615716775288637E-16, 1.000000000000000000 ) ) ;
#222 = APPROVAL_ROLE ( '' ) ;
#223 = ORIENTED_EDGE ( 'NONE', *, *, #48, .T. ) ;
#224 = DIRECTION ( 'NONE',  ( 0.0000000000000000000, 1.000000000000000000, 0.0000000000000000000 ) ) ;
#225 = CARTESIAN_POINT ( 'NONE',  ( 3.553847712424456600E-14, -7.027954798791807524E-16, 10.17862439328399127 ) ) ;
#226 = AXIS2_PLACEMENT_3D ( 'NONE', #54, #133, #193 ) ;
#227 = DESIGN_CONTEXT ( 'detailed design', #232, 'design' ) ;
#228 = DIRECTION ( 'NONE',  ( -3.491481338843133355E-15, 1.224646799147353207E-16, -1.000000000000000000 ) ) ;
#229 = PLANE ( 'NONE',  #114 ) ;
#230 = EDGE_CURVE ( 'NONE', #119, #119, #143, .T. ) ;
#231 = DIRECTION ( 'NONE',  ( -4.321112179779884632E-31, -1.000000000000000000, -1.237615716775287651E-16 ) ) ;
#232 = APPLICATION_CONTEXT ( 'configuration controlled 3d designs of mechanical parts and assemblies' ) ;
#233 = ORIENTED_EDGE ( 'NONE', *, *, #55, .T. ) ;
#234 = PERSON_AND_ORGANIZATION ( #189, #116 ) ;
#235 = EDGE_LOOP ( 'NONE', ( #69 ) ) ;
#236 = AXIS2_PLACEMENT_3D ( 'NONE', #93, #113, #177 ) ;
#237 = DIRECTION ( 'NONE',  ( 0.0000000000000000000, 0.0000000000000000000, 1.000000000000000000 ) ) ;
#238 = DIRECTION ( 'NONE',  ( 3.491481338843133355E-15, -1.224646799147353207E-16, 1.000000000000000000 ) ) ;
#239 = PRODUCT_RELATED_PRODUCT_CATEGORY ( 'detail', '', ( #205 ) ) ;
#240 = PERSON_AND_ORGANIZATION_ROLE ( 'design_supplier' ) ;
#241 = EDGE_LOOP ( 'NONE', ( #30 ) ) ;
#242 = PERSON_AND_ORGANIZATION ( #189, #116 ) ;
#243 = DIRECTION ( 'NONE',  ( 3.491481338843133355E-15, -1.237615716775288637E-16, 1.000000000000000000 ) ) ;
ENDSEC;
END-ISO-10303-21;
