ISO-10303-21;
HEADER;
FILE_DESCRIPTION (( 'STEP AP203' ),
    '1' );
FILE_NAME ('997920.step',
    '2021-11-17T12:43:03',
    ( '' ),
    ( '' ),
    'SwSTEP 2.0',
    'SolidWorks 2019',
    '' );
FILE_SCHEMA (( 'CONFIG_CONTROL_DESIGN' ));
ENDSEC;

DATA;
#1 = DIRECTION ( 'NONE',  ( 3.491481338843133355E-15, -1.237615716775288637E-16, 1.000000000000000000 ) ) ;
#2 = DATE_TIME_ROLE ( 'creation_date' ) ;
#3 = PRODUCT_DEFINITION_SHAPE ( 'NONE', 'NONE',  #227 ) ;
#4 = APPLICATION_PROTOCOL_DEFINITION ( 'international standard', 'config_control_design', 1994, #217 ) ;
#5 = APPROVAL_STATUS ( 'not_yet_approved' ) ;
#6 = AXIS2_PLACEMENT_3D ( 'NONE', #200, #107, #142 ) ;
#7 = EDGE_CURVE ( 'NONE', #177, #177, #46, .T. ) ;
#8 = EDGE_LOOP ( 'NONE', ( #208 ) ) ;
#9 = EDGE_LOOP ( 'NONE', ( #175 ) ) ;
#10 = ORIENTED_EDGE ( 'NONE', *, *, #12, .F. ) ;
#11 = DIRECTION ( 'NONE',  ( -4.321112179779889011E-31, -1.000000000000000000, -1.237615716775288637E-16 ) ) ;
#12 = EDGE_CURVE ( 'NONE', #141, #141, #113, .T. ) ;
#13 = CARTESIAN_POINT ( 'NONE',  ( 0.0000000000000000000, 0.0000000000000000000, 0.0000000000000000000 ) ) ;
#14 = CARTESIAN_POINT ( 'NONE',  ( 1.396592535537253342E-13, 2.399999999999995914, 40.00000000000000000 ) ) ;
#15 = DIRECTION ( 'NONE',  ( 3.491481338843133355E-15, -1.237615716775288637E-16, 1.000000000000000000 ) ) ;
#16 = DIRECTION ( 'NONE',  ( 3.491481338843133355E-15, -1.224646799147353207E-16, 1.000000000000000000 ) ) ;
#17 = AXIS2_PLACEMENT_3D ( 'NONE', #34, #182, #162 ) ;
#18 = FACE_OUTER_BOUND ( 'NONE', #105, .T. ) ;
#19 = DIRECTION ( 'NONE',  ( -3.491481338843133355E-15, 1.224646799147353207E-16, -1.000000000000000000 ) ) ;
#20 = PERSON_AND_ORGANIZATION_ROLE ( 'creator' ) ;
#21 = AXIS2_PLACEMENT_3D ( 'NONE', #140, #16, #69 ) ;
#22 = DATE_AND_TIME ( #129, #70 ) ;
#23 = APPROVAL_ROLE ( '' ) ;
#24 = MECHANICAL_CONTEXT ( 'NONE', #217, 'mechanical' ) ;
#25 = CLOSED_SHELL ( 'NONE', ( #93, #133, #172, #135, #79, #218 ) ) ;
#26 = CC_DESIGN_PERSON_AND_ORGANIZATION_ASSIGNMENT ( #38, #110, ( #130 ) ) ;
#27 = AXIS2_PLACEMENT_3D ( 'NONE', #64, #19, #30 ) ;
#28 = DIRECTION ( 'NONE',  ( 0.0000000000000000000, 1.000000000000000000, 0.0000000000000000000 ) ) ;
#29 = DIRECTION ( 'NONE',  ( -4.401950214493007392E-31, -1.000000000000000000, -1.237615716775288637E-16 ) ) ;
#30 = DIRECTION ( 'NONE',  ( 0.0000000000000000000, 1.000000000000000000, 0.0000000000000000000 ) ) ;
#31 = AXIS2_PLACEMENT_3D ( 'NONE', #68, #146, #28 ) ;
#32 = CARTESIAN_POINT ( 'NONE',  ( 0.0000000000000000000, 0.0000000000000000000, 0.0000000000000000000 ) ) ;
#33 = PRODUCT ( '997920', '997920', '', ( #24 ) ) ;
#34 = CARTESIAN_POINT ( 'NONE',  ( 3.100286233899037107E-14, -7.276651567278209720E-16, 8.879572688554839388 ) ) ;
#35 = DATE_TIME_ROLE ( 'classification_date' ) ;
#36 = LOCAL_TIME ( 13, 43, 3.000000000000000000, #131 ) ;
#37 = PERSON_AND_ORGANIZATION ( #56, #203 ) ;
#38 = PERSON_AND_ORGANIZATION ( #56, #203 ) ;
#39 = EDGE_CURVE ( 'NONE', #102, #102, #138, .T. ) ;
#40 = COORDINATED_UNIVERSAL_TIME_OFFSET ( 1, 0, .AHEAD. ) ;
#41 = CC_DESIGN_SECURITY_CLASSIFICATION ( #130, ( #234 ) ) ;
#42 = PERSON_AND_ORGANIZATION_ROLE ( 'creator' ) ;
#43 = CC_DESIGN_DATE_AND_TIME_ASSIGNMENT ( #22, #35, ( #130 ) ) ;
#44 = DATE_AND_TIME ( #197, #63 ) ;
#45 = CIRCLE ( 'NONE', #31, 3.000000000000000444 ) ;
#46 = CIRCLE ( 'NONE', #86, 0.4250000000000004330 ) ;
#47 = SHAPE_DEFINITION_REPRESENTATION ( #3, #171 ) ;
#48 = EDGE_LOOP ( 'NONE', ( #88 ) ) ;
#49 = CYLINDRICAL_SURFACE ( 'NONE', #58, 0.5000000000000000000 ) ;
#50 = CARTESIAN_POINT ( 'NONE',  ( 1.047444401652939533E-14, -0.4250000000000007661, 2.999999999999998668 ) ) ;
#51 = CIRCLE ( 'NONE', #80, 0.5000000000000000000 ) ;
#52 = EDGE_CURVE ( 'NONE', #178, #178, #45, .T. ) ;
#53 = CARTESIAN_POINT ( 'NONE',  ( 1.047444401652939375E-14, 0.0000000000000000000, 2.999999999999998224 ) ) ;
#54 = FACE_BOUND ( 'NONE', #8, .T. ) ;
#55 = PERSON_AND_ORGANIZATION ( #56, #203 ) ;
#56 = PERSON ( 'UNSPECIFIED', 'UNSPECIFIED', 'UNSPECIFIED', ('UNSPECIFIED'), ('UNSPECIFIED'), ('UNSPECIFIED') ) ;
#57 = CALENDAR_DATE ( 2021, 17, 11 ) ;
#58 = AXIS2_PLACEMENT_3D ( 'NONE', #125, #237, #11 ) ;
#59 = AXIS2_PLACEMENT_3D ( 'NONE', #32, #186, #226 ) ;
#60 = EDGE_LOOP ( 'NONE', ( #136 ) ) ;
#61 = APPROVAL ( #5, 'UNSPECIFIED' ) ;
#62 = ORIENTED_EDGE ( 'NONE', *, *, #7, .T. ) ;
#63 = LOCAL_TIME ( 13, 43, 3.000000000000000000, #40 ) ;
#64 = CARTESIAN_POINT ( 'NONE',  ( 1.396592535537253342E-13, -4.898587196589413026E-15, 40.00000000000000000 ) ) ;
#65 = VERTEX_POINT ( 'NONE', #220 ) ;
#66 = EDGE_LOOP ( 'NONE', ( #235 ) ) ;
#67 = FACE_OUTER_BOUND ( 'NONE', #219, .T. ) ;
#68 = CARTESIAN_POINT ( 'NONE',  ( 1.375643647504194668E-13, -4.825108388640572095E-15, 39.40000000000000568 ) ) ;
#69 = DIRECTION ( 'NONE',  ( -4.275831445896958607E-31, -1.000000000000000000, -1.224646799147353207E-16 ) ) ;
#70 = LOCAL_TIME ( 13, 43, 3.000000000000000000, #189 ) ;
#71 = FACE_OUTER_BOUND ( 'NONE', #122, .T. ) ;
#72 = CARTESIAN_POINT ( 'NONE',  ( 1.047444401652939533E-14, -3.712847150325864431E-16, 2.999999999999998668 ) ) ;
#73 = APPROVAL_ROLE ( '' ) ;
#74 = DATE_AND_TIME ( #225, #145 ) ;
#75 = COORDINATED_UNIVERSAL_TIME_OFFSET ( 1, 0, .AHEAD. ) ;
#76 = FACE_OUTER_BOUND ( 'NONE', #66, .T. ) ;
#77 = CC_DESIGN_APPROVAL ( #61, ( #130 ) ) ;
#78 = CARTESIAN_POINT ( 'NONE',  ( 0.0000000000000000000, 0.0000000000000000000, 0.0000000000000000000 ) ) ;
#79 = ADVANCED_FACE ( 'NONE', ( #18, #180 ), #155, .F. ) ;
#80 = AXIS2_PLACEMENT_3D ( 'NONE', #106, #1, #149 ) ;
#81 = EDGE_LOOP ( 'NONE', ( #84 ) ) ;
#82 = FACE_OUTER_BOUND ( 'NONE', #60, .T. ) ;
#83 = DESIGN_CONTEXT ( 'detailed design', #243, 'design' ) ;
#84 = ORIENTED_EDGE ( 'NONE', *, *, #98, .F. ) ;
#85 = FACE_OUTER_BOUND ( 'NONE', #204, .T. ) ;
#86 = AXIS2_PLACEMENT_3D ( 'NONE', #72, #221, #159 ) ;
#87 = APPROVAL ( #230, 'UNSPECIFIED' ) ;
#88 = ORIENTED_EDGE ( 'NONE', *, *, #52, .F. ) ;
#89 = DIRECTION ( 'NONE',  ( -3.491481338843133355E-15, 1.224646799147353207E-16, -1.000000000000000000 ) ) ;
#90 = DIRECTION ( 'NONE',  ( 3.491481338843133355E-15, -1.224646799147353207E-16, 1.000000000000000000 ) ) ;
#91 = AXIS2_PLACEMENT_3D ( 'NONE', #119, #199, #163 ) ;
#92 = DATE_AND_TIME ( #187, #154 ) ;
#93 = ADVANCED_FACE ( 'NONE', ( #224, #144 ), #124, .T. ) ;
#94 = PERSON_AND_ORGANIZATION_ROLE ( 'design_supplier' ) ;
#95 = CONICAL_SURFACE ( 'NONE', #233, 3.000000000000000444, 0.7853981633974511656 ) ;
#96 =( NAMED_UNIT ( * ) PLANE_ANGLE_UNIT ( ) SI_UNIT ( $, .RADIAN. ) );
#97 = CC_DESIGN_APPROVAL ( #87, ( #227 ) ) ;
#98 = EDGE_CURVE ( 'NONE', #65, #65, #51, .T. ) ;
#99 = ORIENTED_EDGE ( 'NONE', *, *, #39, .T. ) ;
#100 = DIRECTION ( 'NONE',  ( -4.275831445896958607E-31, -1.000000000000000000, -1.224646799147353207E-16 ) ) ;
#101 = EDGE_LOOP ( 'NONE', ( #115 ) ) ;
#102 = VERTEX_POINT ( 'NONE', #147 ) ;
#103 =( GEOMETRIC_REPRESENTATION_CONTEXT ( 3 ) GLOBAL_UNCERTAINTY_ASSIGNED_CONTEXT ( ( #143 ) ) GLOBAL_UNIT_ASSIGNED_CONTEXT ( ( #123, #96, #170 ) ) REPRESENTATION_CONTEXT ( 'NONE', 'WORKASPACE' ) );
#104 = PRODUCT_RELATED_PRODUCT_CATEGORY ( 'detail', '', ( #33 ) ) ;
#105 = EDGE_LOOP ( 'NONE', ( #10 ) ) ;
#106 = CARTESIAN_POINT ( 'NONE',  ( 3.491481338843129805E-15, -1.237615716775287404E-16, 0.9999999999999988898 ) ) ;
#107 = DIRECTION ( 'NONE',  ( 3.491481338843133355E-15, -1.237615716775288637E-16, 1.000000000000000000 ) ) ;
#108 = PERSON_AND_ORGANIZATION ( #56, #203 ) ;
#109 = PERSON_AND_ORGANIZATION ( #56, #203 ) ;
#110 = PERSON_AND_ORGANIZATION_ROLE ( 'classification_officer' ) ;
#111 = FACE_OUTER_BOUND ( 'NONE', #9, .T. ) ;
#112 = DIRECTION ( 'NONE',  ( 1.000000000000000000, 0.0000000000000000000, 0.0000000000000000000 ) ) ;
#113 = CIRCLE ( 'NONE', #17, 3.000000000000000000 ) ;
#114 = CIRCLE ( 'NONE', #6, 0.4250000000000000999 ) ;
#115 = ORIENTED_EDGE ( 'NONE', *, *, #12, .T. ) ;
#116 = CARTESIAN_POINT ( 'NONE',  ( 3.491481338843130989E-15, -1.445602896647338424E-16, 0.9999999999999993339 ) ) ;
#117 = CARTESIAN_POINT ( 'NONE',  ( 1.396592535537253342E-13, 1.799711739194222561E-32, 40.00000000000000000 ) ) ;
#118 = AXIS2_PLACEMENT_3D ( 'NONE', #53, #205, #29 ) ;
#119 = CARTESIAN_POINT ( 'NONE',  ( -6.413747168845438786E-31, 2.249639673992786412E-32, -1.836970198721029934E-16 ) ) ;
#120 = CC_DESIGN_PERSON_AND_ORGANIZATION_ASSIGNMENT ( #109, #20, ( #234 ) ) ;
#121 = APPROVAL_PERSON_ORGANIZATION ( #169, #196, #23 ) ;
#122 = EDGE_LOOP ( 'NONE', ( #216 ) ) ;
#123 =( LENGTH_UNIT ( ) NAMED_UNIT ( * ) SI_UNIT ( .MILLI., .METRE. ) );
#124 = CYLINDRICAL_SURFACE ( 'NONE', #190, 3.000000000000000000 ) ;
#125 = CARTESIAN_POINT ( 'NONE',  ( 0.0000000000000000000, 0.0000000000000000000, 0.0000000000000000000 ) ) ;
#126 = DIRECTION ( 'NONE',  ( 0.0000000000000000000, 1.000000000000000000, 0.0000000000000000000 ) ) ;
#127 = CC_DESIGN_PERSON_AND_ORGANIZATION_ASSIGNMENT ( #214, #42, ( #227 ) ) ;
#128 = FACE_OUTER_BOUND ( 'NONE', #48, .T. ) ;
#129 = CALENDAR_DATE ( 2021, 17, 11 ) ;
#130 = SECURITY_CLASSIFICATION ( '', '', #228 ) ;
#131 = COORDINATED_UNIVERSAL_TIME_OFFSET ( 1, 0, .AHEAD. ) ;
#132 = APPROVAL_STATUS ( 'not_yet_approved' ) ;
#133 = ADVANCED_FACE ( 'NONE', ( #54, #128 ), #95, .T. ) ;
#134 = PERSON_AND_ORGANIZATION_ROLE ( 'design_owner' ) ;
#135 = ADVANCED_FACE ( 'NONE', ( #76, #71 ), #207, .T. ) ;
#136 = ORIENTED_EDGE ( 'NONE', *, *, #215, .F. ) ;
#137 = ORIENTED_EDGE ( 'NONE', *, *, #188, .F. ) ;
#138 = CIRCLE ( 'NONE', #166, 0.5000000000000000000 ) ;
#139 = EDGE_LOOP ( 'NONE', ( #99 ) ) ;
#140 = CARTESIAN_POINT ( 'NONE',  ( 3.491481338843130989E-15, -1.445602896647338424E-16, 0.9999999999999993339 ) ) ;
#141 = VERTEX_POINT ( 'NONE', #236 ) ;
#142 = DIRECTION ( 'NONE',  ( 0.0000000000000000000, -1.000000000000000000, 0.0000000000000000000 ) ) ;
#143 = UNCERTAINTY_MEASURE_WITH_UNIT (LENGTH_MEASURE( 1.000000000000000082E-05 ), #123, 'distance_accuracy_value', 'NONE');
#144 = FACE_OUTER_BOUND ( 'NONE', #101, .T. ) ;
#145 = LOCAL_TIME ( 13, 43, 3.000000000000000000, #150 ) ;
#146 = DIRECTION ( 'NONE',  ( -3.491481338843133355E-15, 1.224646799147353207E-16, -1.000000000000000000 ) ) ;
#147 = CARTESIAN_POINT ( 'NONE',  ( -2.997610085516164240E-30, -0.5000000000000000000, -8.585496511659408373E-16 ) ) ;
#148 = MANIFOLD_SOLID_BREP ( 'Corps-Déplacer/Copier1[2]', #161 ) ;
#149 = DIRECTION ( 'NONE',  ( 0.0000000000000000000, -1.000000000000000000, 0.0000000000000000000 ) ) ;
#150 = COORDINATED_UNIVERSAL_TIME_OFFSET ( 1, 0, .AHEAD. ) ;
#151 = PERSON_AND_ORGANIZATION ( #56, #203 ) ;
#152 = DIRECTION ( 'NONE',  ( 0.0000000000000000000, 0.0000000000000000000, 1.000000000000000000 ) ) ;
#153 = ADVANCED_FACE ( 'NONE', ( #111 ), #157, .T. ) ;
#154 = LOCAL_TIME ( 13, 43, 3.000000000000000000, #75 ) ;
#155 = TOROIDAL_SURFACE ( 'NONE', #118, 8.425000000000000711, 8.000000000000000000 ) ;
#156 = ORIENTED_EDGE ( 'NONE', *, *, #52, .T. ) ;
#157 = PLANE ( 'NONE',  #21 ) ;
#158 = CARTESIAN_POINT ( 'NONE',  ( 1.375643647504194668E-13, 2.999999999999995559, 39.40000000000000568 ) ) ;
#159 = DIRECTION ( 'NONE',  ( 0.0000000000000000000, -1.000000000000000000, 0.0000000000000000000 ) ) ;
#160 = VERTEX_POINT ( 'NONE', #240 ) ;
#161 = CLOSED_SHELL ( 'NONE', ( #153, #167, #174 ) ) ;
#162 = DIRECTION ( 'NONE',  ( 0.0000000000000000000, 1.000000000000000000, 0.0000000000000000000 ) ) ;
#163 = DIRECTION ( 'NONE',  ( 4.275831445896958607E-31, 1.000000000000000000, 1.224646799147353207E-16 ) ) ;
#164 = AXIS2_PLACEMENT_3D ( 'NONE', #78, #152, #112 ) ;
#165 = EDGE_LOOP ( 'NONE', ( #156 ) ) ;
#166 = AXIS2_PLACEMENT_3D ( 'NONE', #184, #15, #241 ) ;
#167 = ADVANCED_FACE ( 'NONE', ( #222, #181 ), #49, .T. ) ;
#168 = CIRCLE ( 'NONE', #27, 2.400000000000000799 ) ;
#169 = PERSON_AND_ORGANIZATION ( #56, #203 ) ;
#170 =( NAMED_UNIT ( * ) SI_UNIT ( $, .STERADIAN. ) SOLID_ANGLE_UNIT ( ) );
#171 = ADVANCED_BREP_SHAPE_REPRESENTATION ( '997920', ( #229, #148, #164 ), #103 ) ;
#172 = ADVANCED_FACE ( 'NONE', ( #85 ), #206, .F. ) ;
#173 = CC_DESIGN_APPROVAL ( #196, ( #234 ) ) ;
#174 = ADVANCED_FACE ( 'NONE', ( #67 ), #183, .T. ) ;
#175 = ORIENTED_EDGE ( 'NONE', *, *, #98, .T. ) ;
#176 = ORIENTED_EDGE ( 'NONE', *, *, #39, .F. ) ;
#177 = VERTEX_POINT ( 'NONE', #50 ) ;
#178 = VERTEX_POINT ( 'NONE', #158 ) ;
#179 = AXIS2_PLACEMENT_3D ( 'NONE', #117, #223, #185 ) ;
#180 = FACE_OUTER_BOUND ( 'NONE', #201, .T. ) ;
#181 = FACE_OUTER_BOUND ( 'NONE', #81, .T. ) ;
#182 = DIRECTION ( 'NONE',  ( 3.491481338843133355E-15, -1.237615716775288637E-16, 1.000000000000000000 ) ) ;
#183 = PLANE ( 'NONE',  #91 ) ;
#184 = CARTESIAN_POINT ( 'NONE',  ( -2.781554476527169702E-30, 9.859699087944493899E-32, -7.966688653271764055E-16 ) ) ;
#185 = DIRECTION ( 'NONE',  ( 4.275831445896958607E-31, 1.000000000000000000, 1.224646799147353207E-16 ) ) ;
#186 = DIRECTION ( 'NONE',  ( 3.491481338843133355E-15, -1.237615716775288637E-16, 1.000000000000000000 ) ) ;
#187 = CALENDAR_DATE ( 2021, 17, 11 ) ;
#188 = EDGE_CURVE ( 'NONE', #202, #202, #168, .T. ) ;
#189 = COORDINATED_UNIVERSAL_TIME_OFFSET ( 1, 0, .AHEAD. ) ;
#190 = AXIS2_PLACEMENT_3D ( 'NONE', #13, #89, #239 ) ;
#191 = APPROVAL_DATE_TIME ( #92, #87 ) ;
#192 = CC_DESIGN_DATE_AND_TIME_ASSIGNMENT ( #193, #2, ( #227 ) ) ;
#193 = DATE_AND_TIME ( #57, #36 ) ;
#194 = DIRECTION ( 'NONE',  ( -3.491481338843133355E-15, 1.224646799147353207E-16, -1.000000000000000000 ) ) ;
#195 = CARTESIAN_POINT ( 'NONE',  ( 1.375643647504194668E-13, -4.825108388640572095E-15, 39.40000000000000568 ) ) ;
#196 = APPROVAL ( #132, 'UNSPECIFIED' ) ;
#197 = CALENDAR_DATE ( 2021, 17, 11 ) ;
#198 = AXIS2_PLACEMENT_3D ( 'NONE', #116, #90, #100 ) ;
#199 = DIRECTION ( 'NONE',  ( -3.491481338843133355E-15, 1.224646799147353207E-16, -1.000000000000000000 ) ) ;
#200 = CARTESIAN_POINT ( 'NONE',  ( 3.491481338843129805E-15, -1.237615716775287404E-16, 0.9999999999999988898 ) ) ;
#201 = EDGE_LOOP ( 'NONE', ( #62 ) ) ;
#202 = VERTEX_POINT ( 'NONE', #14 ) ;
#203 = ORGANIZATION ( 'UNSPECIFIED', 'UNSPECIFIED', '' ) ;
#204 = EDGE_LOOP ( 'NONE', ( #137 ) ) ;
#205 = DIRECTION ( 'NONE',  ( 3.491481338843133355E-15, -1.237615716775288637E-16, 1.000000000000000000 ) ) ;
#206 = PLANE ( 'NONE',  #179 ) ;
#207 = CYLINDRICAL_SURFACE ( 'NONE', #59, 0.4250000000000002665 ) ;
#208 = ORIENTED_EDGE ( 'NONE', *, *, #188, .T. ) ;
#209 = APPLICATION_PROTOCOL_DEFINITION ( 'international standard', 'config_control_design', 1994, #243 ) ;
#210 = APPROVAL_DATE_TIME ( #74, #196 ) ;
#211 = APPROVAL_ROLE ( '' ) ;
#212 = CC_DESIGN_PERSON_AND_ORGANIZATION_ASSIGNMENT ( #55, #94, ( #234 ) ) ;
#213 = APPROVAL_PERSON_ORGANIZATION ( #108, #61, #211 ) ;
#214 = PERSON_AND_ORGANIZATION ( #56, #203 ) ;
#215 = EDGE_CURVE ( 'NONE', #160, #160, #114, .T. ) ;
#216 = ORIENTED_EDGE ( 'NONE', *, *, #7, .F. ) ;
#217 = APPLICATION_CONTEXT ( 'configuration controlled 3d designs of mechanical parts and assemblies' ) ;
#218 = ADVANCED_FACE ( 'NONE', ( #82 ), #242, .F. ) ;
#219 = EDGE_LOOP ( 'NONE', ( #176 ) ) ;
#220 = CARTESIAN_POINT ( 'NONE',  ( 3.491481338843129805E-15, -0.5000000000000001110, 0.9999999999999988898 ) ) ;
#221 = DIRECTION ( 'NONE',  ( 3.491481338843133355E-15, -1.237615716775288637E-16, 1.000000000000000000 ) ) ;
#222 = FACE_OUTER_BOUND ( 'NONE', #139, .T. ) ;
#223 = DIRECTION ( 'NONE',  ( -3.491481338843133355E-15, 1.224646799147353207E-16, -1.000000000000000000 ) ) ;
#224 = FACE_OUTER_BOUND ( 'NONE', #165, .T. ) ;
#225 = CALENDAR_DATE ( 2021, 17, 11 ) ;
#226 = DIRECTION ( 'NONE',  ( -4.321112179779889011E-31, -1.000000000000000000, -1.237615716775288637E-16 ) ) ;
#227 = PRODUCT_DEFINITION ( 'UNKNOWN', '', #234, #83 ) ;
#228 = SECURITY_CLASSIFICATION_LEVEL ( 'unclassified' ) ;
#229 = MANIFOLD_SOLID_BREP ( 'Corps-Déplacer/Copier1[1]', #25 ) ;
#230 = APPROVAL_STATUS ( 'not_yet_approved' ) ;
#231 = APPROVAL_PERSON_ORGANIZATION ( #37, #87, #73 ) ;
#232 = APPROVAL_DATE_TIME ( #44, #61 ) ;
#233 = AXIS2_PLACEMENT_3D ( 'NONE', #195, #194, #126 ) ;
#234 = PRODUCT_DEFINITION_FORMATION_WITH_SPECIFIED_SOURCE ( 'ANY', '', #33, .NOT_KNOWN. ) ;
#235 = ORIENTED_EDGE ( 'NONE', *, *, #215, .T. ) ;
#236 = CARTESIAN_POINT ( 'NONE',  ( 3.100286233899037107E-14, 2.999999999999999112, 8.879572688554839388 ) ) ;
#237 = DIRECTION ( 'NONE',  ( 3.491481338843133355E-15, -1.237615716775288637E-16, 1.000000000000000000 ) ) ;
#238 = CC_DESIGN_PERSON_AND_ORGANIZATION_ASSIGNMENT ( #151, #134, ( #33 ) ) ;
#239 = DIRECTION ( 'NONE',  ( 4.275831445896959482E-31, 1.000000000000000000, 1.224646799147353207E-16 ) ) ;
#240 = CARTESIAN_POINT ( 'NONE',  ( 3.491481338843129805E-15, -0.4250000000000002109, 0.9999999999999988898 ) ) ;
#241 = DIRECTION ( 'NONE',  ( -4.321112179779892515E-31, -1.000000000000000000, -1.237615716775288637E-16 ) ) ;
#242 = PLANE ( 'NONE',  #198 ) ;
#243 = APPLICATION_CONTEXT ( 'configuration controlled 3d designs of mechanical parts and assemblies' ) ;
ENDSEC;
END-ISO-10303-21;
