ISO-10303-21;
HEADER;
FILE_DESCRIPTION (( 'STEP AP203' ),
    '1' );
FILE_NAME ('995888.step',
    '2021-12-17T08:27:06',
    ( '' ),
    ( '' ),
    'SwSTEP 2.0',
    'SolidWorks 2019',
    '' );
FILE_SCHEMA (( 'CONFIG_CONTROL_DESIGN' ));
ENDSEC;

DATA;
#1 = LOCAL_TIME ( 9, 27, 5.000000000000000000, #188 ) ;
#2 = DIRECTION ( 'NONE',  ( -3.491481338843133355E-15, 0.0000000000000000000, -1.000000000000000000 ) ) ;
#3 = CARTESIAN_POINT ( 'NONE',  ( 2.441065553862327734E-15, -5.830914026779852809E-16, 0.6991489619907721442 ) ) ;
#4 = FACE_OUTER_BOUND ( 'NONE', #283, .T. ) ;
#5 = AXIS2_PLACEMENT_3D ( 'NONE', #11, #101, #194 ) ;
#6 = APPROVAL_STATUS ( 'not_yet_approved' ) ;
#7 = EDGE_LOOP ( 'NONE', ( #133 ) ) ;
#8 = DIRECTION ( 'NONE',  ( -1.000000000000000000, 0.0000000000000000000, 3.501069515317774077E-15 ) ) ;
#9 = FACE_OUTER_BOUND ( 'NONE', #110, .T. ) ;
#10 = EDGE_LOOP ( 'NONE', ( #235 ) ) ;
#11 = CARTESIAN_POINT ( 'NONE',  ( 3.793569510817544756E-14, 0.0000000000000000000, 10.86521491211665769 ) ) ;
#12 = CYLINDRICAL_SURFACE ( 'NONE', #183, 0.9099999999999993650 ) ;
#13 = CONICAL_SURFACE ( 'NONE', #229, 1.199999999999995293, 0.7853981633974453924 ) ;
#14 = VERTEX_POINT ( 'NONE', #276 ) ;
#15 = EDGE_CURVE ( 'NONE', #88, #88, #204, .T. ) ;
#16 = CALENDAR_DATE ( 2021, 17, 12 ) ;
#17 = DIRECTION ( 'NONE',  ( 1.000000000000000000, 0.0000000000000000000, -3.491481338843133355E-15 ) ) ;
#18 = VERTEX_POINT ( 'NONE', #231 ) ;
#19 = ADVANCED_FACE ( 'NONE', ( #299 ), #182, .F. ) ;
#20 =( NAMED_UNIT ( * ) PLANE_ANGLE_UNIT ( ) SI_UNIT ( $, .RADIAN. ) );
#21 = DATE_AND_TIME ( #111, #58 ) ;
#22 = CIRCLE ( 'NONE', #5, 1.499999999999995781 ) ;
#23 = DIRECTION ( 'NONE',  ( 3.491481338843133355E-15, 0.0000000000000000000, 1.000000000000000000 ) ) ;
#24 = APPROVAL_STATUS ( 'not_yet_approved' ) ;
#25 = EDGE_CURVE ( 'NONE', #60, #60, #48, .T. ) ;
#26 = FACE_OUTER_BOUND ( 'NONE', #300, .T. ) ;
#27 = ORIENTED_EDGE ( 'NONE', *, *, #15, .F. ) ;
#28 = APPLICATION_CONTEXT ( 'configuration controlled 3d designs of mechanical parts and assemblies' ) ;
#29 = AXIS2_PLACEMENT_3D ( 'NONE', #91, #252, #275 ) ;
#30 = ORIENTED_EDGE ( 'NONE', *, *, #287, .F. ) ;
#31 = DIRECTION ( 'NONE',  ( 1.000000000000000000, 0.0000000000000000000, -3.469446951953624050E-15 ) ) ;
#32 = PLANE ( 'NONE',  #279 ) ;
#33 = CARTESIAN_POINT ( 'NONE',  ( 0.0000000000000000000, 0.0000000000000000000, 0.0000000000000000000 ) ) ;
#34 = ADVANCED_FACE ( 'NONE', ( #86, #69 ), #152, .T. ) ;
#35 = UNCERTAINTY_MEASURE_WITH_UNIT (LENGTH_MEASURE( 1.000000000000000082E-05 ), #80, 'distance_accuracy_value', 'NONE');
#36 = CARTESIAN_POINT ( 'NONE',  ( 0.0000000000000000000, 0.0000000000000000000, 0.0000000000000000000 ) ) ;
#37 = CARTESIAN_POINT ( 'NONE',  ( -1.199999999999862732, 0.0000000000000000000, 38.00000000000000711 ) ) ;
#38 = AXIS2_PLACEMENT_3D ( 'NONE', #61, #200, #108 ) ;
#39 = CARTESIAN_POINT ( 'NONE',  ( -0.9109999999999998099, 0.0000000000000000000, 3.180739499686093887E-15 ) ) ;
#40 = EDGE_CURVE ( 'NONE', #131, #131, #261, .T. ) ;
#41 = VERTEX_POINT ( 'NONE', #174 ) ;
#42 = APPROVAL_DATE_TIME ( #106, #273 ) ;
#43 = ADVANCED_FACE ( 'NONE', ( #150 ), #112, .T. ) ;
#44 = DIRECTION ( 'NONE',  ( 1.000000000000000000, 0.0000000000000000000, 0.0000000000000000000 ) ) ;
#45 = AXIS2_PLACEMENT_3D ( 'NONE', #33, #144, #79 ) ;
#46 = EDGE_LOOP ( 'NONE', ( #282 ) ) ;
#47 = PERSON_AND_ORGANIZATION_ROLE ( 'creator' ) ;
#48 = CIRCLE ( 'NONE', #146, 1.499999999999995337 ) ;
#49 = CIRCLE ( 'NONE', #96, 0.9109999999999998099 ) ;
#50 = DIRECTION ( 'NONE',  ( -1.000000000000000000, 0.0000000000000000000, 3.491481338843133355E-15 ) ) ;
#51 = ORIENTED_EDGE ( 'NONE', *, *, #65, .T. ) ;
#52 = DATE_TIME_ROLE ( 'classification_date' ) ;
#53 = CONICAL_SURFACE ( 'NONE', #191, 1.499999999999995781, 0.2617993877991429685 ) ;
#54 = CC_DESIGN_PERSON_AND_ORGANIZATION_ASSIGNMENT ( #236, #180, ( #78 ) ) ;
#55 = FACE_OUTER_BOUND ( 'NONE', #10, .T. ) ;
#56 = CARTESIAN_POINT ( 'NONE',  ( 2.932844303845605011E-14, 0.0000000000000000000, 8.399999940476192251 ) ) ;
#57 = DIRECTION ( 'NONE',  ( -3.491481338843133355E-15, 0.0000000000000000000, -1.000000000000000000 ) ) ;
#58 = LOCAL_TIME ( 9, 27, 5.000000000000000000, #211 ) ;
#59 = CARTESIAN_POINT ( 'NONE',  ( 1.326762908760390423E-13, 0.0000000000000000000, 38.00000000000000000 ) ) ;
#60 = VERTEX_POINT ( 'NONE', #105 ) ;
#61 = CARTESIAN_POINT ( 'NONE',  ( 0.0000000000000000000, 0.0000000000000000000, 0.0000000000000000000 ) ) ;
#62 = EDGE_CURVE ( 'NONE', #41, #41, #124, .T. ) ;
#63 = DATE_TIME_ROLE ( 'creation_date' ) ;
#64 = CARTESIAN_POINT ( 'NONE',  ( 5.825684226561256371E-16, 0.0000000000000000000, 0.1668542277958025011 ) ) ;
#65 = EDGE_CURVE ( 'NONE', #85, #85, #137, .T. ) ;
#66 = EDGE_LOOP ( 'NONE', ( #216 ) ) ;
#67 = AXIS2_PLACEMENT_3D ( 'NONE', #59, #75, #140 ) ;
#68 = CIRCLE ( 'NONE', #121, 0.9099999999999995870 ) ;
#69 = FACE_OUTER_BOUND ( 'NONE', #66, .T. ) ;
#70 = SECURITY_CLASSIFICATION_LEVEL ( 'unclassified' ) ;
#71 = APPROVAL_ROLE ( '' ) ;
#72 = EDGE_CURVE ( 'NONE', #295, #295, #271, .T. ) ;
#73 = CARTESIAN_POINT ( 'NONE',  ( 3.113576677068130807E-14, 0.0000000000000000000, 8.917638030681219519 ) ) ;
#74 = CC_DESIGN_APPROVAL ( #284, ( #116 ) ) ;
#75 = DIRECTION ( 'NONE',  ( -3.491481338843133355E-15, 0.0000000000000000000, -1.000000000000000000 ) ) ;
#76 = FACE_OUTER_BOUND ( 'NONE', #232, .T. ) ;
#77 = CARTESIAN_POINT ( 'NONE',  ( 2.441065553862328917E-15, 0.0000000000000000000, 0.6991489619907724773 ) ) ;
#78 = PRODUCT_DEFINITION_FORMATION_WITH_SPECIFIED_SOURCE ( 'ANY', '', #102, .NOT_KNOWN. ) ;
#79 = DIRECTION ( 'NONE',  ( -1.000000000000000000, 0.0000000000000000000, 3.491481338843133355E-15 ) ) ;
#80 =( LENGTH_UNIT ( ) NAMED_UNIT ( * ) SI_UNIT ( .MILLI., .METRE. ) );
#81 = CARTESIAN_POINT ( 'NONE',  ( 2.441065553862328917E-15, 0.0000000000000000000, 0.6991489619907724773 ) ) ;
#82 = CALENDAR_DATE ( 2021, 17, 12 ) ;
#83 = ADVANCED_FACE ( 'NONE', ( #26, #114 ), #99, .T. ) ;
#84 = LOCAL_TIME ( 9, 27, 5.000000000000000000, #134 ) ;
#85 = VERTEX_POINT ( 'NONE', #37 ) ;
#86 = FACE_BOUND ( 'NONE', #277, .T. ) ;
#87 = APPROVAL_ROLE ( '' ) ;
#88 = VERTEX_POINT ( 'NONE', #151 ) ;
#89 = CLOSED_SHELL ( 'NONE', ( #19, #34, #298, #83, #43 ) ) ;
#90 = DATE_AND_TIME ( #203, #1 ) ;
#91 = CARTESIAN_POINT ( 'NONE',  ( 2.441065553862328917E-15, 0.0000000000000000000, 0.6991489619907724773 ) ) ;
#92 = ORIENTED_EDGE ( 'NONE', *, *, #15, .T. ) ;
#93 = CC_DESIGN_PERSON_AND_ORGANIZATION_ASSIGNMENT ( #127, #272, ( #102 ) ) ;
#94 = CARTESIAN_POINT ( 'NONE',  ( 1.326762908760390423E-13, 0.0000000000000000000, 38.00000000000000000 ) ) ;
#95 = EDGE_CURVE ( 'NONE', #18, #18, #68, .T. ) ;
#96 = AXIS2_PLACEMENT_3D ( 'NONE', #36, #123, #50 ) ;
#97 = CARTESIAN_POINT ( 'NONE',  ( 2.932844303845605011E-14, 0.0000000000000000000, 8.399999940476192251 ) ) ;
#98 = CIRCLE ( 'NONE', #126, 0.9781483474218591878 ) ;
#99 = CONICAL_SURFACE ( 'NONE', #177, 0.9099999999999990319, 0.5235987755983040337 ) ;
#100 = DIRECTION ( 'NONE',  ( -1.000000000000000000, 0.0000000000000000000, 3.491481338843133750E-15 ) ) ;
#101 = DIRECTION ( 'NONE',  ( -3.491481338843133355E-15, 0.0000000000000000000, -1.000000000000000000 ) ) ;
#102 = PRODUCT ( '995888', '995888', '', ( #199 ) ) ;
#103 = DIRECTION ( 'NONE',  ( -3.491481338843133355E-15, 0.0000000000000000000, -1.000000000000000000 ) ) ;
#104 = CC_DESIGN_PERSON_AND_ORGANIZATION_ASSIGNMENT ( #269, #107, ( #167 ) ) ;
#105 = CARTESIAN_POINT ( 'NONE',  ( -1.499999999999863665, 0.0000000000000000000, 37.70000000000000284 ) ) ;
#106 = DATE_AND_TIME ( #16, #262 ) ;
#107 = PERSON_AND_ORGANIZATION_ROLE ( 'creator' ) ;
#108 = DIRECTION ( 'NONE',  ( -1.000000000000000000, 0.0000000000000000000, 3.491481338843132961E-15 ) ) ;
#109 =( NAMED_UNIT ( * ) SI_UNIT ( $, .STERADIAN. ) SOLID_ANGLE_UNIT ( ) );
#110 = EDGE_LOOP ( 'NONE', ( #202 ) ) ;
#111 = CALENDAR_DATE ( 2021, 17, 12 ) ;
#112 = PLANE ( 'NONE',  #293 ) ;
#113 = EDGE_LOOP ( 'NONE', ( #141 ) ) ;
#114 = FACE_BOUND ( 'NONE', #163, .T. ) ;
#115 = EDGE_LOOP ( 'NONE', ( #185 ) ) ;
#116 = SECURITY_CLASSIFICATION ( '', '', #70 ) ;
#117 = ADVANCED_FACE ( 'NONE', ( #196, #264 ), #189, .F. ) ;
#118 = FACE_OUTER_BOUND ( 'NONE', #206, .T. ) ;
#119 = CARTESIAN_POINT ( 'NONE',  ( 2.441065553862327734E-15, -5.830914026779852809E-16, 0.6991489619907721442 ) ) ;
#120 = FACE_OUTER_BOUND ( 'NONE', #260, .T. ) ;
#121 = AXIS2_PLACEMENT_3D ( 'NONE', #97, #168, #223 ) ;
#122 = ADVANCED_FACE ( 'NONE', ( #245 ), #32, .F. ) ;
#123 = DIRECTION ( 'NONE',  ( -3.491481338843133355E-15, 0.0000000000000000000, -1.000000000000000000 ) ) ;
#124 = CIRCLE ( 'NONE', #195, 1.200000000000000178 ) ;
#125 = VERTEX_POINT ( 'NONE', #39 ) ;
#126 = AXIS2_PLACEMENT_3D ( 'NONE', #73, #292, #247 ) ;
#127 = PERSON_AND_ORGANIZATION ( #255, #154 ) ;
#128 = PERSON_AND_ORGANIZATION ( #255, #154 ) ;
#129 = DIRECTION ( 'NONE',  ( -3.491481338843133355E-15, 0.0000000000000000000, -1.000000000000000000 ) ) ;
#130 = ORIENTED_EDGE ( 'NONE', *, *, #40, .T. ) ;
#131 = VERTEX_POINT ( 'NONE', #145 ) ;
#132 = DIRECTION ( 'NONE',  ( 3.491481338843133355E-15, 0.0000000000000000000, 1.000000000000000000 ) ) ;
#133 = ORIENTED_EDGE ( 'NONE', *, *, #270, .F. ) ;
#134 = COORDINATED_UNIVERSAL_TIME_OFFSET ( 1, 0, .AHEAD. ) ;
#135 = FACE_OUTER_BOUND ( 'NONE', #210, .T. ) ;
#136 = PERSON_AND_ORGANIZATION ( #255, #154 ) ;
#137 = CIRCLE ( 'NONE', #67, 1.199999999999995293 ) ;
#138 = ORIENTED_EDGE ( 'NONE', *, *, #25, .T. ) ;
#139 = CARTESIAN_POINT ( 'NONE',  ( 3.793569510817544756E-14, 0.0000000000000000000, 10.86521491211665769 ) ) ;
#140 = DIRECTION ( 'NONE',  ( -1.000000000000000000, 0.0000000000000000000, 5.782411586589379332E-15 ) ) ;
#141 = ORIENTED_EDGE ( 'NONE', *, *, #72, .T. ) ;
#142 = CYLINDRICAL_SURFACE ( 'NONE', #45, 1.499999999999995559 ) ;
#143 = ADVANCED_FACE ( 'NONE', ( #9, #246 ), #13, .T. ) ;
#144 = DIRECTION ( 'NONE',  ( -3.491481338843133355E-15, 0.0000000000000000000, -1.000000000000000000 ) ) ;
#145 = CARTESIAN_POINT ( 'NONE',  ( -0.9099999999999964784, 0.0000000000000000000, 0.6991489619907755859 ) ) ;
#146 = AXIS2_PLACEMENT_3D ( 'NONE', #159, #2, #281 ) ;
#147 = DIRECTION ( 'NONE',  ( 0.0000000000000000000, 0.0000000000000000000, 1.000000000000000000 ) ) ;
#148 = AXIS2_PLACEMENT_3D ( 'NONE', #56, #103, #100 ) ;
#149 = CYLINDRICAL_SURFACE ( 'NONE', #38, 1.200000000000000178 ) ;
#150 = FACE_OUTER_BOUND ( 'NONE', #166, .T. ) ;
#151 = CARTESIAN_POINT ( 'NONE',  ( -0.9099999999999964784, 0.0000000000000000000, 0.6991489619907755859 ) ) ;
#152 = CONICAL_SURFACE ( 'NONE', #234, 1.200000000000000178, 1.047197551196596521 ) ;
#153 = EDGE_LOOP ( 'NONE', ( #239 ) ) ;
#154 = ORGANIZATION ( 'UNSPECIFIED', 'UNSPECIFIED', '' ) ;
#155 = PERSON_AND_ORGANIZATION ( #255, #154 ) ;
#156 = SHAPE_DEFINITION_REPRESENTATION ( #222, #226 ) ;
#157 = ORIENTED_EDGE ( 'NONE', *, *, #40, .F. ) ;
#158 = APPLICATION_CONTEXT ( 'configuration controlled 3d designs of mechanical parts and assemblies' ) ;
#159 = CARTESIAN_POINT ( 'NONE',  ( 1.316288464743861212E-13, 0.0000000000000000000, 37.69999999999999574 ) ) ;
#160 = ORIENTED_EDGE ( 'NONE', *, *, #248, .F. ) ;
#161 = APPROVAL_DATE_TIME ( #90, #217 ) ;
#162 = ORIENTED_EDGE ( 'NONE', *, *, #72, .F. ) ;
#163 = EDGE_LOOP ( 'NONE', ( #92 ) ) ;
#164 = ADVANCED_FACE ( 'NONE', ( #76, #4 ), #142, .T. ) ;
#165 = DIRECTION ( 'NONE',  ( -1.000000000000000000, 0.0000000000000000000, 3.491481338843133355E-15 ) ) ;
#166 = EDGE_LOOP ( 'NONE', ( #27 ) ) ;
#167 = PRODUCT_DEFINITION ( 'UNKNOWN', '', #78, #289 ) ;
#168 = DIRECTION ( 'NONE',  ( -3.491481338843133355E-15, 0.0000000000000000000, -1.000000000000000000 ) ) ;
#169 = EDGE_LOOP ( 'NONE', ( #51 ) ) ;
#170 = DIRECTION ( 'NONE',  ( -3.491481338843133355E-15, 0.0000000000000000000, -1.000000000000000000 ) ) ;
#171 = CARTESIAN_POINT ( 'NONE',  ( 1.326762908760390423E-13, 0.0000000000000000000, 38.00000000000000000 ) ) ;
#172 = AXIS2_PLACEMENT_3D ( 'NONE', #94, #186, #165 ) ;
#173 = CARTESIAN_POINT ( 'NONE',  ( 0.0000000000000000000, 0.0000000000000000000, 0.0000000000000000000 ) ) ;
#174 = CARTESIAN_POINT ( 'NONE',  ( -1.199999999999999512, 0.0000000000000000000, 0.1668542277958067199 ) ) ;
#175 = CLOSED_SHELL ( 'NONE', ( #122, #214, #117, #294, #164, #143, #291 ) ) ;
#176 = CC_DESIGN_PERSON_AND_ORGANIZATION_ASSIGNMENT ( #155, #47, ( #78 ) ) ;
#177 = AXIS2_PLACEMENT_3D ( 'NONE', #77, #170, #192 ) ;
#178 = DATE_AND_TIME ( #82, #215 ) ;
#179 = CARTESIAN_POINT ( 'NONE',  ( 0.0000000000000000000, 0.0000000000000000000, 0.0000000000000000000 ) ) ;
#180 = PERSON_AND_ORGANIZATION_ROLE ( 'design_supplier' ) ;
#181 = PRODUCT_RELATED_PRODUCT_CATEGORY ( 'detail', '', ( #102 ) ) ;
#182 = PLANE ( 'NONE',  #253 ) ;
#183 = AXIS2_PLACEMENT_3D ( 'NONE', #173, #268, #221 ) ;
#184 = DIRECTION ( 'NONE',  ( 3.491481338843133355E-15, 0.0000000000000000000, 1.000000000000000000 ) ) ;
#185 = ORIENTED_EDGE ( 'NONE', *, *, #287, .T. ) ;
#186 = DIRECTION ( 'NONE',  ( -3.491481338843133355E-15, 0.0000000000000000000, -1.000000000000000000 ) ) ;
#187 = ORIENTED_EDGE ( 'NONE', *, *, #95, .F. ) ;
#188 = COORDINATED_UNIVERSAL_TIME_OFFSET ( 1, 0, .AHEAD. ) ;
#189 = TOROIDAL_SURFACE ( 'NONE', #148, 2.909999999999999254, 2.000000000000000000 ) ;
#190 = ORIENTED_EDGE ( 'NONE', *, *, #62, .F. ) ;
#191 = AXIS2_PLACEMENT_3D ( 'NONE', #139, #244, #31 ) ;
#192 = DIRECTION ( 'NONE',  ( -1.000000000000000000, 0.0000000000000000000, 3.455149780448314570E-15 ) ) ;
#193 = DIRECTION ( 'NONE',  ( -1.000000000000000000, 0.0000000000000000000, 5.782411586589379332E-15 ) ) ;
#194 = DIRECTION ( 'NONE',  ( -1.000000000000000000, 0.0000000000000000000, 3.469446951953624050E-15 ) ) ;
#195 = AXIS2_PLACEMENT_3D ( 'NONE', #64, #129, #8 ) ;
#196 = FACE_OUTER_BOUND ( 'NONE', #254, .T. ) ;
#197 = APPROVAL_PERSON_ORGANIZATION ( #241, #217, #256 ) ;
#198 = MANIFOLD_SOLID_BREP ( 'Corps-Déplacer/Copier1[1]', #175 ) ;
#199 = MECHANICAL_CONTEXT ( 'NONE', #158, 'mechanical' ) ;
#200 = DIRECTION ( 'NONE',  ( -3.491481338843133355E-15, 0.0000000000000000000, -1.000000000000000000 ) ) ;
#201 = DIRECTION ( 'NONE',  ( -3.491481338843133355E-15, 0.0000000000000000000, -1.000000000000000000 ) ) ;
#202 = ORIENTED_EDGE ( 'NONE', *, *, #25, .F. ) ;
#203 = CALENDAR_DATE ( 2021, 17, 12 ) ;
#204 = CIRCLE ( 'NONE', #250, 0.9099999999999990319 ) ;
#205 = DIRECTION ( 'NONE',  ( -1.000000000000000000, 0.0000000000000000000, 3.455149780448314570E-15 ) ) ;
#206 = EDGE_LOOP ( 'NONE', ( #190 ) ) ;
#207 = AXIS2_PLACEMENT_3D ( 'NONE', #179, #147, #44 ) ;
#208 = PERSON_AND_ORGANIZATION_ROLE ( 'classification_officer' ) ;
#209 = CARTESIAN_POINT ( 'NONE',  ( 0.0000000000000000000, 0.0000000000000000000, 0.0000000000000000000 ) ) ;
#210 = EDGE_LOOP ( 'NONE', ( #265 ) ) ;
#211 = COORDINATED_UNIVERSAL_TIME_OFFSET ( 1, 0, .AHEAD. ) ;
#212 = PLANE ( 'NONE',  #172 ) ;
#213 = EDGE_LOOP ( 'NONE', ( #130 ) ) ;
#214 = ADVANCED_FACE ( 'NONE', ( #120, #238 ), #12, .T. ) ;
#215 = LOCAL_TIME ( 9, 27, 5.000000000000000000, #296 ) ;
#216 = ORIENTED_EDGE ( 'NONE', *, *, #62, .T. ) ;
#217 = APPROVAL ( #6, 'UNSPECIFIED' ) ;
#218 = FACE_OUTER_BOUND ( 'NONE', #113, .T. ) ;
#219 = APPROVAL_PERSON_ORGANIZATION ( #128, #273, #87 ) ;
#220 = DIRECTION ( 'NONE',  ( 1.000000000000000000, 0.0000000000000000000, -3.491481338843133355E-15 ) ) ;
#221 = DIRECTION ( 'NONE',  ( -1.000000000000000000, 0.0000000000000000000, 3.491481338843133355E-15 ) ) ;
#222 = PRODUCT_DEFINITION_SHAPE ( 'NONE', 'NONE',  #167 ) ;
#223 = DIRECTION ( 'NONE',  ( -1.000000000000000000, 0.0000000000000000000, 3.812579068080896551E-15 ) ) ;
#224 =( GEOMETRIC_REPRESENTATION_CONTEXT ( 3 ) GLOBAL_UNCERTAINTY_ASSIGNED_CONTEXT ( ( #35 ) ) GLOBAL_UNIT_ASSIGNED_CONTEXT ( ( #80, #20, #109 ) ) REPRESENTATION_CONTEXT ( 'NONE', 'WORKASPACE' ) );
#225 = APPLICATION_PROTOCOL_DEFINITION ( 'international standard', 'config_control_design', 1994, #28 ) ;
#226 = ADVANCED_BREP_SHAPE_REPRESENTATION ( '995888', ( #198, #301, #207 ), #224 ) ;
#227 = APPROVAL_STATUS ( 'not_yet_approved' ) ;
#228 = CARTESIAN_POINT ( 'NONE',  ( -1.199999999999999289, 0.0000000000000000000, 0.1968542277958066633 ) ) ;
#229 = AXIS2_PLACEMENT_3D ( 'NONE', #171, #57, #193 ) ;
#230 = DIRECTION ( 'NONE',  ( 1.000000000000000000, 0.0000000000000000000, -3.501069515317774077E-15 ) ) ;
#231 = CARTESIAN_POINT ( 'NONE',  ( -0.9099999999999701661, 0.0000000000000000000, 8.399999940476195803 ) ) ;
#232 = EDGE_LOOP ( 'NONE', ( #160 ) ) ;
#233 = CARTESIAN_POINT ( 'NONE',  ( 5.825684226561256371E-16, 0.0000000000000000000, 0.1668542277958025011 ) ) ;
#234 = AXIS2_PLACEMENT_3D ( 'NONE', #233, #23, #230 ) ;
#235 = ORIENTED_EDGE ( 'NONE', *, *, #248, .T. ) ;
#236 = PERSON_AND_ORGANIZATION ( #255, #154 ) ;
#237 = CC_DESIGN_DATE_AND_TIME_ASSIGNMENT ( #178, #63, ( #167 ) ) ;
#238 = FACE_OUTER_BOUND ( 'NONE', #46, .T. ) ;
#239 = ORIENTED_EDGE ( 'NONE', *, *, #270, .T. ) ;
#240 = DATE_AND_TIME ( #278, #84 ) ;
#241 = PERSON_AND_ORGANIZATION ( #255, #154 ) ;
#242 = CC_DESIGN_DATE_AND_TIME_ASSIGNMENT ( #240, #52, ( #116 ) ) ;
#243 = CC_DESIGN_APPROVAL ( #273, ( #167 ) ) ;
#244 = DIRECTION ( 'NONE',  ( 3.491481338843133355E-15, 0.0000000000000000000, 1.000000000000000000 ) ) ;
#245 = FACE_OUTER_BOUND ( 'NONE', #213, .T. ) ;
#246 = FACE_BOUND ( 'NONE', #169, .T. ) ;
#247 = DIRECTION ( 'NONE',  ( -1.000000000000000000, 0.0000000000000000000, 3.546953753076576359E-15 ) ) ;
#248 = EDGE_CURVE ( 'NONE', #14, #14, #22, .T. ) ;
#249 = VERTEX_POINT ( 'NONE', #251 ) ;
#250 = AXIS2_PLACEMENT_3D ( 'NONE', #81, #201, #205 ) ;
#251 = CARTESIAN_POINT ( 'NONE',  ( -0.9781483474218278795, 0.0000000000000000000, 8.917638030681223071 ) ) ;
#252 = DIRECTION ( 'NONE',  ( -3.491481338843133355E-15, 0.0000000000000000000, -1.000000000000000000 ) ) ;
#253 = AXIS2_PLACEMENT_3D ( 'NONE', #209, #132, #17 ) ;
#254 = EDGE_LOOP ( 'NONE', ( #187 ) ) ;
#255 = PERSON ( 'UNSPECIFIED', 'UNSPECIFIED', 'UNSPECIFIED', ('UNSPECIFIED'), ('UNSPECIFIED'), ('UNSPECIFIED') ) ;
#256 = APPROVAL_ROLE ( '' ) ;
#257 = DIRECTION ( 'NONE',  ( 1.000000000000000000, 0.0000000000000000000, -3.491481338843133355E-15 ) ) ;
#258 = APPROVAL_PERSON_ORGANIZATION ( #136, #284, #71 ) ;
#259 = PERSON_AND_ORGANIZATION ( #255, #154 ) ;
#260 = EDGE_LOOP ( 'NONE', ( #157 ) ) ;
#261 = CIRCLE ( 'NONE', #29, 0.9099999999999990319 ) ;
#262 = LOCAL_TIME ( 9, 27, 5.000000000000000000, #274 ) ;
#263 = FACE_BOUND ( 'NONE', #7, .T. ) ;
#264 = FACE_OUTER_BOUND ( 'NONE', #153, .T. ) ;
#265 = ORIENTED_EDGE ( 'NONE', *, *, #65, .F. ) ;
#266 = CARTESIAN_POINT ( 'NONE',  ( 6.873128628214194997E-16, 0.0000000000000000000, 0.1968542277958024445 ) ) ;
#267 = CC_DESIGN_SECURITY_CLASSIFICATION ( #116, ( #78 ) ) ;
#268 = DIRECTION ( 'NONE',  ( -3.491481338843133355E-15, 0.0000000000000000000, -1.000000000000000000 ) ) ;
#269 = PERSON_AND_ORGANIZATION ( #255, #154 ) ;
#270 = EDGE_CURVE ( 'NONE', #249, #249, #98, .T. ) ;
#271 = CIRCLE ( 'NONE', #302, 1.199999999999999956 ) ;
#272 = PERSON_AND_ORGANIZATION_ROLE ( 'design_owner' ) ;
#273 = APPROVAL ( #227, 'UNSPECIFIED' ) ;
#274 = COORDINATED_UNIVERSAL_TIME_OFFSET ( 1, 0, .AHEAD. ) ;
#275 = DIRECTION ( 'NONE',  ( -1.000000000000000000, 0.0000000000000000000, 3.455149780448314570E-15 ) ) ;
#276 = CARTESIAN_POINT ( 'NONE',  ( -1.499999999999957812, 0.0000000000000000000, 10.86521491211666302 ) ) ;
#277 = EDGE_LOOP ( 'NONE', ( #30 ) ) ;
#278 = CALENDAR_DATE ( 2021, 17, 12 ) ;
#279 = AXIS2_PLACEMENT_3D ( 'NONE', #119, #286, #220 ) ;
#280 = CC_DESIGN_APPROVAL ( #217, ( #78 ) ) ;
#281 = DIRECTION ( 'NONE',  ( -1.000000000000000000, 0.0000000000000000000, 4.625929269271500311E-15 ) ) ;
#282 = ORIENTED_EDGE ( 'NONE', *, *, #95, .T. ) ;
#283 = EDGE_LOOP ( 'NONE', ( #138 ) ) ;
#284 = APPROVAL ( #24, 'UNSPECIFIED' ) ;
#285 = APPROVAL_DATE_TIME ( #21, #284 ) ;
#286 = DIRECTION ( 'NONE',  ( 3.491481338843133355E-15, 0.0000000000000000000, 1.000000000000000000 ) ) ;
#287 = EDGE_CURVE ( 'NONE', #125, #125, #49, .T. ) ;
#288 = DIRECTION ( 'NONE',  ( -3.491481338843133355E-15, 0.0000000000000000000, -1.000000000000000000 ) ) ;
#289 = DESIGN_CONTEXT ( 'detailed design', #28, 'design' ) ;
#290 = DIRECTION ( 'NONE',  ( -1.000000000000000000, 0.0000000000000000000, 3.501069515317774866E-15 ) ) ;
#291 = ADVANCED_FACE ( 'NONE', ( #135 ), #212, .F. ) ;
#292 = DIRECTION ( 'NONE',  ( -3.491481338843133355E-15, 0.0000000000000000000, -1.000000000000000000 ) ) ;
#293 = AXIS2_PLACEMENT_3D ( 'NONE', #3, #184, #257 ) ;
#294 = ADVANCED_FACE ( 'NONE', ( #263, #55 ), #53, .T. ) ;
#295 = VERTEX_POINT ( 'NONE', #228 ) ;
#296 = COORDINATED_UNIVERSAL_TIME_OFFSET ( 1, 0, .AHEAD. ) ;
#297 = APPLICATION_PROTOCOL_DEFINITION ( 'international standard', 'config_control_design', 1994, #158 ) ;
#298 = ADVANCED_FACE ( 'NONE', ( #118, #218 ), #149, .T. ) ;
#299 = FACE_OUTER_BOUND ( 'NONE', #115, .T. ) ;
#300 = EDGE_LOOP ( 'NONE', ( #162 ) ) ;
#301 = MANIFOLD_SOLID_BREP ( 'Corps-Déplacer/Copier1[2]', #89 ) ;
#302 = AXIS2_PLACEMENT_3D ( 'NONE', #266, #288, #290 ) ;
#303 = CC_DESIGN_PERSON_AND_ORGANIZATION_ASSIGNMENT ( #259, #208, ( #116 ) ) ;
ENDSEC;
END-ISO-10303-21;
