ISO-10303-21;
HEADER;
FILE_DESCRIPTION (( 'STEP AP203' ),
    '1' );
FILE_NAME ('995887.step',
    '2021-12-17T08:27:05',
    ( '' ),
    ( '' ),
    'SwSTEP 2.0',
    'SolidWorks 2019',
    '' );
FILE_SCHEMA (( 'CONFIG_CONTROL_DESIGN' ));
ENDSEC;

DATA;
#1 = AXIS2_PLACEMENT_3D ( 'NONE', #202, #274, #2 ) ;
#2 = DIRECTION ( 'NONE',  ( -1.000000000000000000, 0.0000000000000000000, 5.782411586589379332E-15 ) ) ;
#3 = PERSON ( 'UNSPECIFIED', 'UNSPECIFIED', 'UNSPECIFIED', ('UNSPECIFIED'), ('UNSPECIFIED'), ('UNSPECIFIED') ) ;
#4 = CARTESIAN_POINT ( 'NONE',  ( 2.164718430082742680E-14, 0.0000000000000000000, 6.200000000000000178 ) ) ;
#5 = CARTESIAN_POINT ( 'NONE',  ( 2.164718430082742996E-14, 0.0000000000000000000, 6.200000000000001066 ) ) ;
#6 = EDGE_CURVE ( 'NONE', #243, #243, #170, .T. ) ;
#7 = COORDINATED_UNIVERSAL_TIME_OFFSET ( 1, 0, .AHEAD. ) ;
#8 = EDGE_LOOP ( 'NONE', ( #20 ) ) ;
#9 = EDGE_CURVE ( 'NONE', #197, #197, #286, .T. ) ;
#10 = CARTESIAN_POINT ( 'NONE',  ( 5.241099996214278710E-16, 0.0000000000000000000, 0.1501110699893032641 ) ) ;
#11 = FACE_OUTER_BOUND ( 'NONE', #42, .T. ) ;
#12 = ORIENTED_EDGE ( 'NONE', *, *, #247, .T. ) ;
#13 = CARTESIAN_POINT ( 'NONE',  ( 6.183799957701923177E-16, 0.0000000000000000000, 0.1771110699893032325 ) ) ;
#14 = CC_DESIGN_PERSON_AND_ORGANIZATION_ASSIGNMENT ( #44, #158, ( #291 ) ) ;
#15 = CARTESIAN_POINT ( 'NONE',  ( 2.190709994634455716E-15, 0.0000000000000000000, 0.6274442799572073071 ) ) ;
#16 = AXIS2_PLACEMENT_3D ( 'NONE', #112, #216, #94 ) ;
#17 = CARTESIAN_POINT ( 'NONE',  ( -0.5899999999999774314, 0.0000000000000000000, 6.200000000000001954 ) ) ;
#18 = DIRECTION ( 'NONE',  ( -1.000000000000000000, 0.0000000000000000000, 2.940209281316626045E-15 ) ) ;
#19 = ORIENTED_EDGE ( 'NONE', *, *, #28, .F. ) ;
#20 = ORIENTED_EDGE ( 'NONE', *, *, #9, .T. ) ;
#21 = PERSON_AND_ORGANIZATION ( #3, #250 ) ;
#22 = LOCAL_TIME ( 9, 27, 5.000000000000000000, #284 ) ;
#23 = CIRCLE ( 'NONE', #222, 0.5899999999999993028 ) ;
#24 = FACE_OUTER_BOUND ( 'NONE', #123, .T. ) ;
#25 = EDGE_CURVE ( 'NONE', #199, #199, #190, .T. ) ;
#26 = FACE_OUTER_BOUND ( 'NONE', #65, .T. ) ;
#27 = APPROVAL_DATE_TIME ( #67, #164 ) ;
#28 = EDGE_CURVE ( 'NONE', #117, #117, #85, .T. ) ;
#29 = DIRECTION ( 'NONE',  ( -1.000000000000000000, 0.0000000000000000000, 3.491481338843133355E-15 ) ) ;
#30 = APPLICATION_CONTEXT ( 'configuration controlled 3d designs of mechanical parts and assemblies' ) ;
#31 = PLANE ( 'NONE',  #16 ) ;
#32 = DIRECTION ( 'NONE',  ( -3.491481338843133355E-15, 0.0000000000000000000, -1.000000000000000000 ) ) ;
#33 = DESIGN_CONTEXT ( 'detailed design', #257, 'design' ) ;
#34 = FACE_BOUND ( 'NONE', #230, .T. ) ;
#35 = VERTEX_POINT ( 'NONE', #246 ) ;
#36 = CONICAL_SURFACE ( 'NONE', #280, 1.499999999999995559, 0.2617993877991428020 ) ;
#37 = COORDINATED_UNIVERSAL_TIME_OFFSET ( 1, 0, .AHEAD. ) ;
#38 = PERSON_AND_ORGANIZATION_ROLE ( 'creator' ) ;
#39 =( NAMED_UNIT ( * ) PLANE_ANGLE_UNIT ( ) SI_UNIT ( $, .RADIAN. ) );
#40 = AXIS2_PLACEMENT_3D ( 'NONE', #238, #114, #138 ) ;
#41 = ADVANCED_FACE ( 'NONE', ( #148 ), #155, .F. ) ;
#42 = EDGE_LOOP ( 'NONE', ( #131 ) ) ;
#43 = ORIENTED_EDGE ( 'NONE', *, *, #129, .T. ) ;
#44 = PERSON_AND_ORGANIZATION ( #3, #250 ) ;
#45 = APPROVAL_PERSON_ORGANIZATION ( #249, #164, #254 ) ;
#46 = FACE_OUTER_BOUND ( 'NONE', #256, .T. ) ;
#48 = AXIS2_PLACEMENT_3D ( 'NONE', #96, #242, #195 ) ;
#47 = CC_DESIGN_PERSON_AND_ORGANIZATION_ASSIGNMENT ( #201, #226, ( #52 ) ) ;
#49 = DIRECTION ( 'NONE',  ( -1.000000000000000000, 0.0000000000000000000, 3.491498521563493034E-15 ) ) ;
#50 = CYLINDRICAL_SURFACE ( 'NONE', #48, 1.499999999999995337 ) ;
#51 = CARTESIAN_POINT ( 'NONE',  ( 0.0000000000000000000, 0.0000000000000000000, 0.0000000000000000000 ) ) ;
#52 = PRODUCT ( '995887', '995887', '', ( #273 ) ) ;
#53 = CARTESIAN_POINT ( 'NONE',  ( -9.463679131915806782E-32, 0.0000000000000000000, -2.710505431213761085E-17 ) ) ;
#54 = DIRECTION ( 'NONE',  ( 1.000000000000000000, 0.0000000000000000000, 0.0000000000000000000 ) ) ;
#55 = APPROVAL_STATUS ( 'not_yet_approved' ) ;
#56 = ADVANCED_FACE ( 'NONE', ( #24, #228 ), #161, .T. ) ;
#57 = APPROVAL_PERSON_ORGANIZATION ( #149, #168, #268 ) ;
#58 = CIRCLE ( 'NONE', #206, 0.5899999999999991918 ) ;
#59 = APPROVAL_DATE_TIME ( #224, #168 ) ;
#60 = DIRECTION ( 'NONE',  ( -3.491481338843133355E-15, 0.0000000000000000000, -1.000000000000000000 ) ) ;
#61 = VERTEX_POINT ( 'NONE', #81 ) ;
#62 = ORIENTED_EDGE ( 'NONE', *, *, #247, .F. ) ;
#63 = AXIS2_PLACEMENT_3D ( 'NONE', #265, #285, #140 ) ;
#64 = DIRECTION ( 'NONE',  ( -3.491481338843133355E-15, 0.0000000000000000000, -1.000000000000000000 ) ) ;
#65 = EDGE_LOOP ( 'NONE', ( #19 ) ) ;
#66 = ORIENTED_EDGE ( 'NONE', *, *, #189, .T. ) ;
#67 = DATE_AND_TIME ( #68, #105 ) ;
#68 = CALENDAR_DATE ( 2021, 17, 12 ) ;
#69 = APPROVAL ( #279, 'UNSPECIFIED' ) ;
#70 = DIRECTION ( 'NONE',  ( 1.000000000000000000, 0.0000000000000000000, -3.469446951953624444E-15 ) ) ;
#71 = SECURITY_CLASSIFICATION ( '', '', #177 ) ;
#72 = FACE_OUTER_BOUND ( 'NONE', #277, .T. ) ;
#73 = EDGE_CURVE ( 'NONE', #35, #35, #111, .T. ) ;
#74 = PLANE ( 'NONE',  #86 ) ;
#75 = DIRECTION ( 'NONE',  ( 3.491481338843133355E-15, 0.0000000000000000000, 1.000000000000000000 ) ) ;
#76 = CLOSED_SHELL ( 'NONE', ( #41, #282, #269, #227, #107, #253, #272 ) ) ;
#77 = FACE_OUTER_BOUND ( 'NONE', #150, .T. ) ;
#78 = CARTESIAN_POINT ( 'NONE',  ( -0.8499999999999994227, 0.0000000000000000000, 0.1501110699893062062 ) ) ;
#79 = PRODUCT_DEFINITION ( 'UNKNOWN', '', #291, #33 ) ;
#80 = DIRECTION ( 'NONE',  ( -1.000000000000000000, 0.0000000000000000000, 3.491481338843132961E-15 ) ) ;
#81 = CARTESIAN_POINT ( 'NONE',  ( -1.499999999999960920, 0.0000000000000000000, 9.859471230062545999 ) ) ;
#82 = CC_DESIGN_APPROVAL ( #168, ( #79 ) ) ;
#83 = CARTESIAN_POINT ( 'NONE',  ( 2.190709994634455716E-15, 0.0000000000000000000, 0.6274442799572073071 ) ) ;
#84 = EDGE_CURVE ( 'NONE', #101, #101, #58, .T. ) ;
#85 = CIRCLE ( 'NONE', #1, 1.199999999999995293 ) ;
#86 = AXIS2_PLACEMENT_3D ( 'NONE', #167, #299, #146 ) ;
#87 = DIRECTION ( 'NONE',  ( -1.000000000000000000, 0.0000000000000000000, 4.625929269271500311E-15 ) ) ;
#88 = EDGE_LOOP ( 'NONE', ( #166 ) ) ;
#89 = CC_DESIGN_DATE_AND_TIME_ASSIGNMENT ( #130, #133, ( #71 ) ) ;
#90 = DATE_AND_TIME ( #180, #22 ) ;
#91 = CYLINDRICAL_SURFACE ( 'NONE', #212, 0.8500000000000000888 ) ;
#92 = ORIENTED_EDGE ( 'NONE', *, *, #100, .F. ) ;
#93 = DIRECTION ( 'NONE',  ( -3.491481338843133355E-15, 0.0000000000000000000, -1.000000000000000000 ) ) ;
#94 = DIRECTION ( 'NONE',  ( -1.000000000000000000, 0.0000000000000000000, 3.491481338843133355E-15 ) ) ;
#95 = AXIS2_PLACEMENT_3D ( 'NONE', #248, #255, #122 ) ;
#96 = CARTESIAN_POINT ( 'NONE',  ( 0.0000000000000000000, 0.0000000000000000000, 0.0000000000000000000 ) ) ;
#97 = DIRECTION ( 'NONE',  ( -1.000000000000000000, 0.0000000000000000000, 3.491481338843132961E-15 ) ) ;
#98 = CARTESIAN_POINT ( 'NONE',  ( 3.442415981062411567E-14, 0.0000000000000000000, 9.859471230062540670 ) ) ;
#99 = CONICAL_SURFACE ( 'NONE', #40, 0.8499999999999999778, 1.047197551196596299 ) ;
#100 = EDGE_CURVE ( 'NONE', #61, #61, #145, .T. ) ;
#101 = VERTEX_POINT ( 'NONE', #17 ) ;
#102 = CC_DESIGN_PERSON_AND_ORGANIZATION_ASSIGNMENT ( #245, #38, ( #79 ) ) ;
#103 = APPLICATION_PROTOCOL_DEFINITION ( 'international standard', 'config_control_design', 1994, #257 ) ;
#104 = CARTESIAN_POINT ( 'NONE',  ( -0.6581483474218358110, 0.0000000000000000000, 6.717638090205031887 ) ) ;
#105 = LOCAL_TIME ( 9, 27, 5.000000000000000000, #127 ) ;
#107 = ADVANCED_FACE ( 'NONE', ( #77, #171 ), #50, .T. ) ;
#106 = CLOSED_SHELL ( 'NONE', ( #193, #214, #198, #56, #293 ) ) ;
#108 = DIRECTION ( 'NONE',  ( -3.491481338843133355E-15, 0.0000000000000000000, -1.000000000000000000 ) ) ;
#109 = FACE_OUTER_BOUND ( 'NONE', #210, .T. ) ;
#110 = LOCAL_TIME ( 9, 27, 5.000000000000000000, #200 ) ;
#111 = CIRCLE ( 'NONE', #134, 1.499999999999995337 ) ;
#112 = CARTESIAN_POINT ( 'NONE',  ( 1.326762908760390423E-13, 0.0000000000000000000, 38.00000000000000000 ) ) ;
#113 = DIRECTION ( 'NONE',  ( -3.491481338843133355E-15, 0.0000000000000000000, -1.000000000000000000 ) ) ;
#114 = DIRECTION ( 'NONE',  ( 3.491481338843133355E-15, 0.0000000000000000000, 1.000000000000000000 ) ) ;
#115 = FACE_BOUND ( 'NONE', #139, .T. ) ;
#116 = CC_DESIGN_PERSON_AND_ORGANIZATION_ASSIGNMENT ( #21, #181, ( #291 ) ) ;
#117 = VERTEX_POINT ( 'NONE', #276 ) ;
#118 = AXIS2_PLACEMENT_3D ( 'NONE', #300, #108, #179 ) ;
#119 = CIRCLE ( 'NONE', #262, 0.8499999999999999778 ) ;
#120 = CALENDAR_DATE ( 2021, 17, 12 ) ;
#121 = CALENDAR_DATE ( 2021, 17, 12 ) ;
#122 = DIRECTION ( 'NONE',  ( 1.000000000000000000, 0.0000000000000000000, -3.491481338843133355E-15 ) ) ;
#123 = EDGE_LOOP ( 'NONE', ( #62 ) ) ;
#124 = CC_DESIGN_APPROVAL ( #164, ( #291 ) ) ;
#125 = APPROVAL_STATUS ( 'not_yet_approved' ) ;
#126 = EDGE_LOOP ( 'NONE', ( #213 ) ) ;
#127 = COORDINATED_UNIVERSAL_TIME_OFFSET ( 1, 0, .AHEAD. ) ;
#128 = CARTESIAN_POINT ( 'NONE',  ( 2.345450803305268476E-14, 0.0000000000000000000, 6.717638090205029222 ) ) ;
#129 = EDGE_CURVE ( 'NONE', #271, #271, #23, .T. ) ;
#130 = DATE_AND_TIME ( #235, #221 ) ;
#131 = ORIENTED_EDGE ( 'NONE', *, *, #129, .F. ) ;
#132 = FACE_OUTER_BOUND ( 'NONE', #8, .T. ) ;
#133 = DATE_TIME_ROLE ( 'classification_date' ) ;
#134 = AXIS2_PLACEMENT_3D ( 'NONE', #281, #207, #87 ) ;
#135 = ORIENTED_EDGE ( 'NONE', *, *, #25, .T. ) ;
#136 = DIRECTION ( 'NONE',  ( -3.491481338843133355E-15, 0.0000000000000000000, -1.000000000000000000 ) ) ;
#137 = CC_DESIGN_PERSON_AND_ORGANIZATION_ASSIGNMENT ( #153, #208, ( #71 ) ) ;
#138 = DIRECTION ( 'NONE',  ( 1.000000000000000000, 0.0000000000000000000, -3.475824611791764331E-15 ) ) ;
#139 = EDGE_LOOP ( 'NONE', ( #203 ) ) ;
#140 = DIRECTION ( 'NONE',  ( -1.000000000000000000, 0.0000000000000000000, 3.469446951953624444E-15 ) ) ;
#141 = DIRECTION ( 'NONE',  ( -3.491481338843133355E-15, 0.0000000000000000000, -1.000000000000000000 ) ) ;
#142 = CARTESIAN_POINT ( 'NONE',  ( -0.5899999999999970823, 0.0000000000000000000, 0.6274442799572093055 ) ) ;
#143 = PRODUCT_DEFINITION_SHAPE ( 'NONE', 'NONE',  #79 ) ;
#144 = CARTESIAN_POINT ( 'NONE',  ( -0.5899999999999998579, 0.0000000000000000000, 2.005763881293172748E-15 ) ) ;
#145 = CIRCLE ( 'NONE', #63, 1.499999999999995559 ) ;
#146 = DIRECTION ( 'NONE',  ( 1.000000000000000000, 0.0000000000000000000, -3.491481338843133355E-15 ) ) ;
#147 = DATE_TIME_ROLE ( 'creation_date' ) ;
#148 = FACE_OUTER_BOUND ( 'NONE', #156, .T. ) ;
#149 = PERSON_AND_ORGANIZATION ( #3, #250 ) ;
#150 = EDGE_LOOP ( 'NONE', ( #92 ) ) ;
#151 = APPROVAL_PERSON_ORGANIZATION ( #251, #69, #186 ) ;
#152 = CIRCLE ( 'NONE', #232, 0.8500000000000001998 ) ;
#153 = PERSON_AND_ORGANIZATION ( #3, #250 ) ;
#154 = ORIENTED_EDGE ( 'NONE', *, *, #73, .T. ) ;
#155 = PLANE ( 'NONE',  #95 ) ;
#156 = EDGE_LOOP ( 'NONE', ( #135 ) ) ;
#157 = ORIENTED_EDGE ( 'NONE', *, *, #6, .T. ) ;
#158 = PERSON_AND_ORGANIZATION_ROLE ( 'design_supplier' ) ;
#159 = ORIENTED_EDGE ( 'NONE', *, *, #6, .F. ) ;
#160 = LOCAL_TIME ( 9, 27, 5.000000000000000000, #37 ) ;
#161 = CONICAL_SURFACE ( 'NONE', #118, 0.5899999999999993028, 0.5235987755983042558 ) ;
#162 = FACE_OUTER_BOUND ( 'NONE', #88, .T. ) ;
#163 = EDGE_LOOP ( 'NONE', ( #43 ) ) ;
#164 = APPROVAL ( #125, 'UNSPECIFIED' ) ;
#165 = CYLINDRICAL_SURFACE ( 'NONE', #220, 0.5899999999999991918 ) ;
#166 = ORIENTED_EDGE ( 'NONE', *, *, #73, .F. ) ;
#167 = CARTESIAN_POINT ( 'NONE',  ( 2.190709994634455716E-15, 0.0000000000000000000, 0.6274442799572073071 ) ) ;
#168 = APPROVAL ( #55, 'UNSPECIFIED' ) ;
#169 = FACE_OUTER_BOUND ( 'NONE', #264, .T. ) ;
#170 = CIRCLE ( 'NONE', #278, 0.5899999999999998579 ) ;
#171 = FACE_OUTER_BOUND ( 'NONE', #260, .T. ) ;
#172 =( LENGTH_UNIT ( ) NAMED_UNIT ( * ) SI_UNIT ( .MILLI., .METRE. ) );
#173 =( NAMED_UNIT ( * ) SI_UNIT ( $, .STERADIAN. ) SOLID_ANGLE_UNIT ( ) );
#174 = AXIS2_PLACEMENT_3D ( 'NONE', #270, #229, #54 ) ;
#175 = VERTEX_POINT ( 'NONE', #297 ) ;
#176 = ORIENTED_EDGE ( 'NONE', *, *, #100, .T. ) ;
#177 = SECURITY_CLASSIFICATION_LEVEL ( 'unclassified' ) ;
#178 = AXIS2_PLACEMENT_3D ( 'NONE', #233, #219, #294 ) ;
#179 = DIRECTION ( 'NONE',  ( -1.000000000000000000, 0.0000000000000000000, 3.491498521563493034E-15 ) ) ;
#180 = CALENDAR_DATE ( 2021, 17, 12 ) ;
#181 = PERSON_AND_ORGANIZATION_ROLE ( 'creator' ) ;
#182 = DIRECTION ( 'NONE',  ( -3.491481338843133355E-15, 0.0000000000000000000, -1.000000000000000000 ) ) ;
#183 = EDGE_LOOP ( 'NONE', ( #188 ) ) ;
#184 = PLANE ( 'NONE',  #292 ) ;
#185 = ORIENTED_EDGE ( 'NONE', *, *, #25, .F. ) ;
#186 = APPROVAL_ROLE ( '' ) ;
#187 = MANIFOLD_SOLID_BREP ( 'Corps-Déplacer/Copier1[1]', #76 ) ;
#188 = ORIENTED_EDGE ( 'NONE', *, *, #189, .F. ) ;
#189 = EDGE_CURVE ( 'NONE', #295, #295, #119, .T. ) ;
#190 = CIRCLE ( 'NONE', #237, 0.5899999999999993028 ) ;
#191 = FACE_OUTER_BOUND ( 'NONE', #258, .T. ) ;
#192 = DIRECTION ( 'NONE',  ( 3.491481338843133355E-15, 0.0000000000000000000, 1.000000000000000000 ) ) ;
#193 = ADVANCED_FACE ( 'NONE', ( #289 ), #184, .F. ) ;
#194 = DIRECTION ( 'NONE',  ( 1.000000000000000000, 0.0000000000000000000, -3.491481338843133355E-15 ) ) ;
#195 = DIRECTION ( 'NONE',  ( -1.000000000000000000, 0.0000000000000000000, 3.491481338843133355E-15 ) ) ;
#196 = AXIS2_PLACEMENT_3D ( 'NONE', #128, #60, #231 ) ;
#197 = VERTEX_POINT ( 'NONE', #104 ) ;
#198 = ADVANCED_FACE ( 'NONE', ( #241, #169 ), #91, .T. ) ;
#199 = VERTEX_POINT ( 'NONE', #142 ) ;
#200 = COORDINATED_UNIVERSAL_TIME_OFFSET ( 1, 0, .AHEAD. ) ;
#201 = PERSON_AND_ORGANIZATION ( #3, #250 ) ;
#202 = CARTESIAN_POINT ( 'NONE',  ( 1.326762908760390423E-13, 0.0000000000000000000, 38.00000000000000000 ) ) ;
#203 = ORIENTED_EDGE ( 'NONE', *, *, #28, .T. ) ;
#204 = DIRECTION ( 'NONE',  ( -1.000000000000000000, 0.0000000000000000000, 3.491498521563493034E-15 ) ) ;
#205 = CC_DESIGN_APPROVAL ( #69, ( #71 ) ) ;
#206 = AXIS2_PLACEMENT_3D ( 'NONE', #4, #182, #18 ) ;
#207 = DIRECTION ( 'NONE',  ( -3.491481338843133355E-15, 0.0000000000000000000, -1.000000000000000000 ) ) ;
#208 = PERSON_AND_ORGANIZATION_ROLE ( 'classification_officer' ) ;
#209 = DIRECTION ( 'NONE',  ( -3.491481338843133355E-15, 0.0000000000000000000, -1.000000000000000000 ) ) ;
#210 = EDGE_LOOP ( 'NONE', ( #66 ) ) ;
#211 =( GEOMETRIC_REPRESENTATION_CONTEXT ( 3 ) GLOBAL_UNCERTAINTY_ASSIGNED_CONTEXT ( ( #240 ) ) GLOBAL_UNIT_ASSIGNED_CONTEXT ( ( #172, #39, #173 ) ) REPRESENTATION_CONTEXT ( 'NONE', 'WORKASPACE' ) );
#212 = AXIS2_PLACEMENT_3D ( 'NONE', #51, #267, #97 ) ;
#213 = ORIENTED_EDGE ( 'NONE', *, *, #9, .F. ) ;
#214 = ADVANCED_FACE ( 'NONE', ( #34, #109 ), #99, .T. ) ;
#215 = CARTESIAN_POINT ( 'NONE',  ( -1.892735826383161356E-31, 0.0000000000000000000, -5.421010862427522170E-17 ) ) ;
#216 = DIRECTION ( 'NONE',  ( -3.491481338843133355E-15, 0.0000000000000000000, -1.000000000000000000 ) ) ;
#217 = DIRECTION ( 'NONE',  ( -1.000000000000000000, 0.0000000000000000000, 3.491481338843132961E-15 ) ) ;
#218 = FACE_BOUND ( 'NONE', #126, .T. ) ;
#219 = DIRECTION ( 'NONE',  ( -3.491481338843133355E-15, 0.0000000000000000000, -1.000000000000000000 ) ) ;
#220 = AXIS2_PLACEMENT_3D ( 'NONE', #263, #113, #217 ) ;
#221 = LOCAL_TIME ( 9, 27, 5.000000000000000000, #7 ) ;
#222 = AXIS2_PLACEMENT_3D ( 'NONE', #15, #32, #49 ) ;
#223 = CC_DESIGN_DATE_AND_TIME_ASSIGNMENT ( #225, #147, ( #79 ) ) ;
#224 = DATE_AND_TIME ( #120, #160 ) ;
#225 = DATE_AND_TIME ( #121, #110 ) ;
#226 = PERSON_AND_ORGANIZATION_ROLE ( 'design_owner' ) ;
#227 = ADVANCED_FACE ( 'NONE', ( #218, #288 ), #36, .T. ) ;
#228 = FACE_BOUND ( 'NONE', #163, .T. ) ;
#229 = DIRECTION ( 'NONE',  ( 0.0000000000000000000, 0.0000000000000000000, 1.000000000000000000 ) ) ;
#230 = EDGE_LOOP ( 'NONE', ( #159 ) ) ;
#231 = DIRECTION ( 'NONE',  ( -1.000000000000000000, 0.0000000000000000000, 3.953645442031823175E-15 ) ) ;
#232 = AXIS2_PLACEMENT_3D ( 'NONE', #13, #136, #287 ) ;
#233 = CARTESIAN_POINT ( 'NONE',  ( 1.326762908760390423E-13, 0.0000000000000000000, 38.00000000000000000 ) ) ;
#234 = APPROVAL_DATE_TIME ( #90, #69 ) ;
#235 = CALENDAR_DATE ( 2021, 17, 12 ) ;
#236 = CC_DESIGN_SECURITY_CLASSIFICATION ( #71, ( #291 ) ) ;
#237 = AXIS2_PLACEMENT_3D ( 'NONE', #83, #64, #204 ) ;
#238 = CARTESIAN_POINT ( 'NONE',  ( 5.241099996214278710E-16, 0.0000000000000000000, 0.1501110699893032641 ) ) ;
#239 = DIRECTION ( 'NONE',  ( -1.000000000000000000, 0.0000000000000000000, 3.475824611791764331E-15 ) ) ;
#240 = UNCERTAINTY_MEASURE_WITH_UNIT (LENGTH_MEASURE( 1.000000000000000082E-05 ), #172, 'distance_accuracy_value', 'NONE');
#241 = FACE_OUTER_BOUND ( 'NONE', #183, .T. ) ;
#242 = DIRECTION ( 'NONE',  ( -3.491481338843133355E-15, 0.0000000000000000000, -1.000000000000000000 ) ) ;
#243 = VERTEX_POINT ( 'NONE', #144 ) ;
#244 = TOROIDAL_SURFACE ( 'NONE', #302, 2.589999999999999414, 2.000000000000000000 ) ;
#245 = PERSON_AND_ORGANIZATION ( #3, #250 ) ;
#246 = CARTESIAN_POINT ( 'NONE',  ( -1.499999999999863665, 0.0000000000000000000, 37.70000000000000284 ) ) ;
#247 = EDGE_CURVE ( 'NONE', #175, #175, #152, .T. ) ;
#248 = CARTESIAN_POINT ( 'NONE',  ( 2.190709994634455716E-15, 0.0000000000000000000, 0.6274442799572073071 ) ) ;
#249 = PERSON_AND_ORGANIZATION ( #3, #250 ) ;
#250 = ORGANIZATION ( 'UNSPECIFIED', 'UNSPECIFIED', '' ) ;
#251 = PERSON_AND_ORGANIZATION ( #3, #250 ) ;
#252 = EDGE_LOOP ( 'NONE', ( #157 ) ) ;
#253 = ADVANCED_FACE ( 'NONE', ( #162, #115 ), #266, .T. ) ;
#254 = APPROVAL_ROLE ( '' ) ;
#255 = DIRECTION ( 'NONE',  ( 3.491481338843133355E-15, 0.0000000000000000000, 1.000000000000000000 ) ) ;
#256 = EDGE_LOOP ( 'NONE', ( #301 ) ) ;
#257 = APPLICATION_CONTEXT ( 'configuration controlled 3d designs of mechanical parts and assemblies' ) ;
#258 = EDGE_LOOP ( 'NONE', ( #185 ) ) ;
#259 = SHAPE_DEFINITION_REPRESENTATION ( #143, #261 ) ;
#260 = EDGE_LOOP ( 'NONE', ( #154 ) ) ;
#261 = ADVANCED_BREP_SHAPE_REPRESENTATION ( '995887', ( #187, #290, #174 ), #211 ) ;
#262 = AXIS2_PLACEMENT_3D ( 'NONE', #10, #141, #239 ) ;
#263 = CARTESIAN_POINT ( 'NONE',  ( 0.0000000000000000000, 0.0000000000000000000, 0.0000000000000000000 ) ) ;
#264 = EDGE_LOOP ( 'NONE', ( #12 ) ) ;
#265 = CARTESIAN_POINT ( 'NONE',  ( 3.442415981062411567E-14, 0.0000000000000000000, 9.859471230062540670 ) ) ;
#266 = CONICAL_SURFACE ( 'NONE', #178, 1.199999999999995293, 0.7853981633974453924 ) ;
#267 = DIRECTION ( 'NONE',  ( -3.491481338843133355E-15, 0.0000000000000000000, -1.000000000000000000 ) ) ;
#268 = APPROVAL_ROLE ( '' ) ;
#269 = ADVANCED_FACE ( 'NONE', ( #46, #132 ), #244, .F. ) ;
#270 = CARTESIAN_POINT ( 'NONE',  ( 0.0000000000000000000, 0.0000000000000000000, 0.0000000000000000000 ) ) ;
#271 = VERTEX_POINT ( 'NONE', #298 ) ;
#272 = ADVANCED_FACE ( 'NONE', ( #26 ), #31, .F. ) ;
#273 = MECHANICAL_CONTEXT ( 'NONE', #30, 'mechanical' ) ;
#274 = DIRECTION ( 'NONE',  ( -3.491481338843133355E-15, 0.0000000000000000000, -1.000000000000000000 ) ) ;
#275 = ORIENTED_EDGE ( 'NONE', *, *, #84, .T. ) ;
#276 = CARTESIAN_POINT ( 'NONE',  ( -1.199999999999862732, 0.0000000000000000000, 38.00000000000000711 ) ) ;
#277 = EDGE_LOOP ( 'NONE', ( #275 ) ) ;
#278 = AXIS2_PLACEMENT_3D ( 'NONE', #215, #93, #80 ) ;
#279 = APPROVAL_STATUS ( 'not_yet_approved' ) ;
#280 = AXIS2_PLACEMENT_3D ( 'NONE', #98, #192, #70 ) ;
#281 = CARTESIAN_POINT ( 'NONE',  ( 1.316288464743861212E-13, 0.0000000000000000000, 37.69999999999999574 ) ) ;
#282 = ADVANCED_FACE ( 'NONE', ( #191, #72 ), #165, .T. ) ;
#283 = EDGE_LOOP ( 'NONE', ( #176 ) ) ;
#284 = COORDINATED_UNIVERSAL_TIME_OFFSET ( 1, 0, .AHEAD. ) ;
#285 = DIRECTION ( 'NONE',  ( -3.491481338843133355E-15, 0.0000000000000000000, -1.000000000000000000 ) ) ;
#286 = CIRCLE ( 'NONE', #196, 0.6581483474218592367 ) ;
#287 = DIRECTION ( 'NONE',  ( -1.000000000000000000, 0.0000000000000000000, 3.475824611791763542E-15 ) ) ;
#288 = FACE_OUTER_BOUND ( 'NONE', #283, .T. ) ;
#289 = FACE_OUTER_BOUND ( 'NONE', #252, .T. ) ;
#290 = MANIFOLD_SOLID_BREP ( 'Corps-Déplacer/Copier1[2]', #106 ) ;
#291 = PRODUCT_DEFINITION_FORMATION_WITH_SPECIFIED_SOURCE ( 'ANY', '', #52, .NOT_KNOWN. ) ;
#293 = ADVANCED_FACE ( 'NONE', ( #11 ), #74, .T. ) ;
#292 = AXIS2_PLACEMENT_3D ( 'NONE', #53, #75, #194 ) ;
#294 = DIRECTION ( 'NONE',  ( -1.000000000000000000, 0.0000000000000000000, 5.782411586589379332E-15 ) ) ;
#295 = VERTEX_POINT ( 'NONE', #78 ) ;
#296 = APPLICATION_PROTOCOL_DEFINITION ( 'international standard', 'config_control_design', 1994, #30 ) ;
#297 = CARTESIAN_POINT ( 'NONE',  ( -0.8499999999999995337, 0.0000000000000000000, 0.1771110699893061746 ) ) ;
#298 = CARTESIAN_POINT ( 'NONE',  ( -0.5899999999999970823, 0.0000000000000000000, 0.6274442799572093055 ) ) ;
#299 = DIRECTION ( 'NONE',  ( 3.491481338843133355E-15, 0.0000000000000000000, 1.000000000000000000 ) ) ;
#300 = CARTESIAN_POINT ( 'NONE',  ( 2.190709994634455716E-15, 0.0000000000000000000, 0.6274442799572073071 ) ) ;
#301 = ORIENTED_EDGE ( 'NONE', *, *, #84, .F. ) ;
#302 = AXIS2_PLACEMENT_3D ( 'NONE', #5, #209, #29 ) ;
#303 = PRODUCT_RELATED_PRODUCT_CATEGORY ( 'detail', '', ( #52 ) ) ;
ENDSEC;
END-ISO-10303-21;
