ISO-10303-21;
HEADER;
FILE_DESCRIPTION (( 'STEP AP203' ),
    '1' );
FILE_NAME ('995886.step',
    '2021-12-17T08:27:04',
    ( '' ),
    ( '' ),
    'SwSTEP 2.0',
    'SolidWorks 2019',
    '' );
FILE_SCHEMA (( 'CONFIG_CONTROL_DESIGN' ));
ENDSEC;

DATA;
#1 = PRODUCT_DEFINITION_FORMATION_WITH_SPECIFIED_SOURCE ( 'ANY', '', #96, .NOT_KNOWN. ) ;
#2 = DIRECTION ( 'NONE',  ( -1.000000000000000000, 0.0000000000000000000, 3.469446951953624444E-15 ) ) ;
#3 = CC_DESIGN_DATE_AND_TIME_ASSIGNMENT ( #49, #140, ( #74 ) ) ;
#4 = CARTESIAN_POINT ( 'NONE',  ( 0.0000000000000000000, 0.0000000000000000000, 0.0000000000000000000 ) ) ;
#5 = CIRCLE ( 'NONE', #147, 1.499999999999995337 ) ;
#6 = DIRECTION ( 'NONE',  ( -1.000000000000000000, 0.0000000000000000000, 3.423796334164754477E-15 ) ) ;
#7 = CARTESIAN_POINT ( 'NONE',  ( -0.5699999999999975087, 0.0000000000000000000, 0.5567395979236443582 ) ) ;
#8 = AXIS2_PLACEMENT_3D ( 'NONE', #136, #114, #6 ) ;
#9 = VERTEX_POINT ( 'NONE', #141 ) ;
#10 = EDGE_CURVE ( 'NONE', #9, #9, #188, .T. ) ;
#11 = CYLINDRICAL_SURFACE ( 'NONE', #291, 0.5699999999999992850 ) ;
#12 = CARTESIAN_POINT ( 'NONE',  ( 4.656515765867301048E-16, 0.0000000000000000000, 0.1333679121828040548 ) ) ;
#13 = TOROIDAL_SURFACE ( 'NONE', #152, 2.569999999999999396, 1.999999999999999556 ) ;
#14 = FACE_OUTER_BOUND ( 'NONE', #242, .T. ) ;
#15 = ORIENTED_EDGE ( 'NONE', *, *, #48, .F. ) ;
#16 = ORIENTED_EDGE ( 'NONE', *, *, #212, .F. ) ;
#17 = ORIENTED_EDGE ( 'NONE', *, *, #10, .T. ) ;
#18 = DIRECTION ( 'NONE',  ( 3.491481338843133355E-15, 0.0000000000000000000, 1.000000000000000000 ) ) ;
#19 = EDGE_LOOP ( 'NONE', ( #75 ) ) ;
#20 = SECURITY_CLASSIFICATION ( '', '', #201 ) ;
#21 = DIRECTION ( 'NONE',  ( -3.491481338843133355E-15, 0.0000000000000000000, -1.000000000000000000 ) ) ;
#22 = ORIENTED_EDGE ( 'NONE', *, *, #184, .T. ) ;
#23 = MECHANICAL_CONTEXT ( 'NONE', #142, 'mechanical' ) ;
#24 = APPROVAL ( #208, 'UNSPECIFIED' ) ;
#25 = FACE_OUTER_BOUND ( 'NONE', #274, .T. ) ;
#26 = FACE_OUTER_BOUND ( 'NONE', #273, .T. ) ;
#27 = CIRCLE ( 'NONE', #42, 0.8000000000000003775 ) ;
#28 = VERTEX_POINT ( 'NONE', #117 ) ;
#29 = PERSON_AND_ORGANIZATION ( #50, #189 ) ;
#30 = CARTESIAN_POINT ( 'NONE',  ( -0.5699999999999975087, 0.0000000000000000000, 0.5567395979236443582 ) ) ;
#31 = CC_DESIGN_APPROVAL ( #125, ( #74 ) ) ;
#32 = CARTESIAN_POINT ( 'NONE',  ( 1.943845916745426705E-15, 0.0000000000000000000, 0.5567395979236424708 ) ) ;
#33 = DIRECTION ( 'NONE',  ( 3.491481338843133355E-15, 0.0000000000000000000, 1.000000000000000000 ) ) ;
#34 = DESIGN_CONTEXT ( 'detailed design', #229, 'design' ) ;
#35 = PERSON_AND_ORGANIZATION_ROLE ( 'creator' ) ;
#36 = DIRECTION ( 'NONE',  ( -3.491481338843133355E-15, 0.0000000000000000000, -1.000000000000000000 ) ) ;
#37 = DIRECTION ( 'NONE',  ( -1.000000000000000000, 0.0000000000000000000, 3.491481338843133355E-15 ) ) ;
#38 = PLANE ( 'NONE',  #193 ) ;
#39 = CC_DESIGN_PERSON_AND_ORGANIZATION_ASSIGNMENT ( #111, #249, ( #96 ) ) ;
#40 = CARTESIAN_POINT ( 'NONE',  ( 0.0000000000000000000, 0.0000000000000000000, 0.0000000000000000000 ) ) ;
#41 = CARTESIAN_POINT ( 'NONE',  ( 3.258987841058365417E-14, 0.0000000000000000000, 9.334112156928203063 ) ) ;
#42 = AXIS2_PLACEMENT_3D ( 'NONE', #294, #21, #195 ) ;
#43 = DIRECTION ( 'NONE',  ( -1.000000000000000000, 0.0000000000000000000, 3.043374519257559973E-15 ) ) ;
#44 = CALENDAR_DATE ( 2021, 17, 12 ) ;
#45 = CARTESIAN_POINT ( 'NONE',  ( -0.7999999999999996003, 0.0000000000000000000, 0.1333679121828068304 ) ) ;
#46 = VERTEX_POINT ( 'NONE', #30 ) ;
#47 = COORDINATED_UNIVERSAL_TIME_OFFSET ( 1, 0, .AHEAD. ) ;
#48 = EDGE_CURVE ( 'NONE', #288, #288, #234, .T. ) ;
#49 = DATE_AND_TIME ( #44, #241 ) ;
#50 = PERSON ( 'UNSPECIFIED', 'UNSPECIFIED', 'UNSPECIFIED', ('UNSPECIFIED'), ('UNSPECIFIED'), ('UNSPECIFIED') ) ;
#51 = VERTEX_POINT ( 'NONE', #209 ) ;
#52 = FACE_OUTER_BOUND ( 'NONE', #101, .T. ) ;
#53 = CARTESIAN_POINT ( 'NONE',  ( -9.463679131915806782E-32, 0.0000000000000000000, -2.710505431213761085E-17 ) ) ;
#54 = EDGE_LOOP ( 'NONE', ( #17 ) ) ;
#55 = ORIENTED_EDGE ( 'NONE', *, *, #10, .F. ) ;
#56 = DATE_TIME_ROLE ( 'classification_date' ) ;
#57 = DIRECTION ( 'NONE',  ( -1.000000000000000000, 0.0000000000000000000, 3.491481338843133355E-15 ) ) ;
#58 = ORIENTED_EDGE ( 'NONE', *, *, #181, .F. ) ;
#59 = EDGE_LOOP ( 'NONE', ( #55 ) ) ;
#60 = DIRECTION ( 'NONE',  ( 3.491481338843133355E-15, 0.0000000000000000000, 1.000000000000000000 ) ) ;
#61 = ORIENTED_EDGE ( 'NONE', *, *, #48, .T. ) ;
#62 = ADVANCED_FACE ( 'NONE', ( #173, #14 ), #11, .T. ) ;
#63 = COORDINATED_UNIVERSAL_TIME_OFFSET ( 1, 0, .AHEAD. ) ;
#64 = CIRCLE ( 'NONE', #261, 1.499999999999995559 ) ;
#65 = LOCAL_TIME ( 9, 27, 4.000000000000000000, #103 ) ;
#66 = DIRECTION ( 'NONE',  ( -3.491481338843133355E-15, 0.0000000000000000000, -1.000000000000000000 ) ) ;
#67 = COORDINATED_UNIVERSAL_TIME_OFFSET ( 1, 0, .AHEAD. ) ;
#68 = DATE_AND_TIME ( #259, #194 ) ;
#69 = VERTEX_POINT ( 'NONE', #262 ) ;
#70 = CC_DESIGN_PERSON_AND_ORGANIZATION_ASSIGNMENT ( #168, #35, ( #1 ) ) ;
#71 = PERSON_AND_ORGANIZATION_ROLE ( 'classification_officer' ) ;
#72 = AXIS2_PLACEMENT_3D ( 'NONE', #40, #131, #37 ) ;
#73 = DIRECTION ( 'NONE',  ( -1.000000000000000000, 0.0000000000000000000, 4.077555359153902488E-15 ) ) ;
#74 = PRODUCT_DEFINITION ( 'UNKNOWN', '', #1, #34 ) ;
#75 = ORIENTED_EDGE ( 'NONE', *, *, #287, .T. ) ;
#76 = MANIFOLD_SOLID_BREP ( 'Corps-Déplacer/Copier1[2]', #222 ) ;
#77 = EDGE_LOOP ( 'NONE', ( #124 ) ) ;
#78 = CIRCLE ( 'NONE', #137, 0.5689999999999999503 ) ;
#79 = DIRECTION ( 'NONE',  ( 3.491481338843133355E-15, 0.0000000000000000000, 1.000000000000000000 ) ) ;
#80 = CC_DESIGN_PERSON_AND_ORGANIZATION_ASSIGNMENT ( #29, #95, ( #74 ) ) ;
#81 = ORIENTED_EDGE ( 'NONE', *, *, #251, .F. ) ;
#82 = DIRECTION ( 'NONE',  ( 1.000000000000000000, 0.0000000000000000000, -3.491481338843133355E-15 ) ) ;
#83 = ORIENTED_EDGE ( 'NONE', *, *, #218, .F. ) ;
#84 = EDGE_LOOP ( 'NONE', ( #83 ) ) ;
#85 =( NAMED_UNIT ( * ) SI_UNIT ( $, .STERADIAN. ) SOLID_ANGLE_UNIT ( ) );
#86 = CYLINDRICAL_SURFACE ( 'NONE', #240, 1.499999999999995337 ) ;
#87 = APPROVAL_DATE_TIME ( #177, #24 ) ;
#88 = DIRECTION ( 'NONE',  ( -3.491481338843133355E-15, 0.0000000000000000000, -1.000000000000000000 ) ) ;
#89 = FACE_BOUND ( 'NONE', #59, .T. ) ;
#90 = ADVANCED_FACE ( 'NONE', ( #100, #170 ), #115, .T. ) ;
#91 = COORDINATED_UNIVERSAL_TIME_OFFSET ( 1, 0, .AHEAD. ) ;
#92 = CIRCLE ( 'NONE', #269, 0.5699999999999992850 ) ;
#93 = EDGE_CURVE ( 'NONE', #265, #265, #27, .T. ) ;
#94 = DIRECTION ( 'NONE',  ( -1.000000000000000000, 0.0000000000000000000, 3.423796334164754477E-15 ) ) ;
#95 = PERSON_AND_ORGANIZATION_ROLE ( 'creator' ) ;
#96 = PRODUCT ( '995886', '995886', '', ( #23 ) ) ;
#97 = AXIS2_PLACEMENT_3D ( 'NONE', #206, #36, #271 ) ;
#98 = APPROVAL_PERSON_ORGANIZATION ( #119, #278, #160 ) ;
#99 = DIRECTION ( 'NONE',  ( -3.491481338843133355E-15, 0.0000000000000000000, -1.000000000000000000 ) ) ;
#100 = FACE_OUTER_BOUND ( 'NONE', #226, .T. ) ;
#101 = EDGE_LOOP ( 'NONE', ( #22 ) ) ;
#102 = CARTESIAN_POINT ( 'NONE',  ( 0.0000000000000000000, 0.0000000000000000000, 0.0000000000000000000 ) ) ;
#103 = COORDINATED_UNIVERSAL_TIME_OFFSET ( 1, 0, .AHEAD. ) ;
#104 = ADVANCED_FACE ( 'NONE', ( #268 ), #167, .F. ) ;
#105 = CONICAL_SURFACE ( 'NONE', #143, 1.499999999999995559, 0.2617993877991426355 ) ;
#106 = DIRECTION ( 'NONE',  ( -1.000000000000000000, 0.0000000000000000000, 5.782411586589379332E-15 ) ) ;
#107 = EDGE_LOOP ( 'NONE', ( #61 ) ) ;
#108 = APPROVAL_ROLE ( '' ) ;
#109 = DIRECTION ( 'NONE',  ( -1.000000000000000000, 0.0000000000000000000, 4.625929269271500311E-15 ) ) ;
#110 = LOCAL_TIME ( 9, 27, 4.000000000000000000, #91 ) ;
#111 = PERSON_AND_ORGANIZATION ( #50, #189 ) ;
#112 = PERSON_AND_ORGANIZATION ( #50, #189 ) ;
#113 = ADVANCED_FACE ( 'NONE', ( #52 ), #122, .F. ) ;
#114 = DIRECTION ( 'NONE',  ( -3.491481338843133355E-15, 0.0000000000000000000, -1.000000000000000000 ) ) ;
#115 = CONICAL_SURFACE ( 'NONE', #164, 1.199999999999995293, 0.7853981633974453924 ) ;
#116 = FACE_OUTER_BOUND ( 'NONE', #54, .T. ) ;
#117 = CARTESIAN_POINT ( 'NONE',  ( -1.499999999999863665, 0.0000000000000000000, 37.70000000000000284 ) ) ;
#118 = ADVANCED_FACE ( 'NONE', ( #244 ), #127, .F. ) ;
#119 = PERSON_AND_ORGANIZATION ( #50, #189 ) ;
#120 = APPROVAL_DATE_TIME ( #138, #278 ) ;
#121 = CC_DESIGN_APPROVAL ( #278, ( #1 ) ) ;
#122 = PLANE ( 'NONE',  #254 ) ;
#123 = CARTESIAN_POINT ( 'NONE',  ( -1.892735826383161356E-31, 0.0000000000000000000, -5.421010862427522170E-17 ) ) ;
#124 = ORIENTED_EDGE ( 'NONE', *, *, #181, .T. ) ;
#125 = APPROVAL ( #231, 'UNSPECIFIED' ) ;
#126 =( NAMED_UNIT ( * ) PLANE_ANGLE_UNIT ( ) SI_UNIT ( $, .RADIAN. ) );
#127 = PLANE ( 'NONE',  #214 ) ;
#128 = ORIENTED_EDGE ( 'NONE', *, *, #239, .T. ) ;
#129 = CARTESIAN_POINT ( 'NONE',  ( 2.135961891800739333E-14, 0.0000000000000000000, 6.117638000919312979 ) ) ;
#130 = AXIS2_PLACEMENT_3D ( 'NONE', #302, #257, #213 ) ;
#131 = DIRECTION ( 'NONE',  ( -3.491481338843133355E-15, 0.0000000000000000000, -1.000000000000000000 ) ) ;
#132 = PERSON_AND_ORGANIZATION ( #50, #189 ) ;
#133 = DIRECTION ( 'NONE',  ( 3.491481338843133355E-15, 0.0000000000000000000, 1.000000000000000000 ) ) ;
#134 = CIRCLE ( 'NONE', #8, 0.5699999999999993960 ) ;
#135 = CALENDAR_DATE ( 2021, 17, 12 ) ;
#136 = CARTESIAN_POINT ( 'NONE',  ( 1.943845916745426705E-15, 0.0000000000000000000, 0.5567395979236424708 ) ) ;
#137 = AXIS2_PLACEMENT_3D ( 'NONE', #123, #224, #296 ) ;
#138 = DATE_AND_TIME ( #185, #110 ) ;
#139 = VERTEX_POINT ( 'NONE', #237 ) ;
#140 = DATE_TIME_ROLE ( 'creation_date' ) ;
#141 = CARTESIAN_POINT ( 'NONE',  ( -0.6381483474218384577, 0.0000000000000000000, 6.117638000919315644 ) ) ;
#142 = APPLICATION_CONTEXT ( 'configuration controlled 3d designs of mechanical parts and assemblies' ) ;
#143 = AXIS2_PLACEMENT_3D ( 'NONE', #41, #60, #232 ) ;
#144 = AXIS2_PLACEMENT_3D ( 'NONE', #32, #166, #94 ) ;
#145 = UNCERTAINTY_MEASURE_WITH_UNIT (LENGTH_MEASURE( 1.000000000000000082E-05 ), #199, 'distance_accuracy_value', 'NONE');
#146 = CARTESIAN_POINT ( 'NONE',  ( 1.326762908760390423E-13, 0.0000000000000000000, 38.00000000000000000 ) ) ;
#147 = AXIS2_PLACEMENT_3D ( 'NONE', #281, #66, #109 ) ;
#148 = DIRECTION ( 'NONE',  ( 1.000000000000000000, 0.0000000000000000000, -3.491481338843133355E-15 ) ) ;
#149 = DIRECTION ( 'NONE',  ( 1.000000000000000000, 0.0000000000000000000, -3.491481338843133355E-15 ) ) ;
#150 = EDGE_LOOP ( 'NONE', ( #276 ) ) ;
#151 = AXIS2_PLACEMENT_3D ( 'NONE', #12, #196, #295 ) ;
#152 = AXIS2_PLACEMENT_3D ( 'NONE', #186, #191, #219 ) ;
#153 = ORIENTED_EDGE ( 'NONE', *, *, #239, .F. ) ;
#154 = FACE_OUTER_BOUND ( 'NONE', #77, .T. ) ;
#155 = EDGE_LOOP ( 'NONE', ( #225 ) ) ;
#156 = DIRECTION ( 'NONE',  ( -3.491481338843133355E-15, 0.0000000000000000000, -1.000000000000000000 ) ) ;
#157 = CARTESIAN_POINT ( 'NONE',  ( 4.656515765867301048E-16, 0.0000000000000000000, 0.1333679121828040548 ) ) ;
#158 = AXIS2_PLACEMENT_3D ( 'NONE', #157, #133, #183 ) ;
#159 = ADVANCED_FACE ( 'NONE', ( #246 ), #38, .T. ) ;
#160 = APPROVAL_ROLE ( '' ) ;
#161 = FACE_BOUND ( 'NONE', #203, .T. ) ;
#162 = CC_DESIGN_APPROVAL ( #24, ( #20 ) ) ;
#163 = PRODUCT_DEFINITION_SHAPE ( 'NONE', 'NONE',  #74 ) ;
#164 = AXIS2_PLACEMENT_3D ( 'NONE', #266, #99, #106 ) ;
#165 = CALENDAR_DATE ( 2021, 17, 12 ) ;
#166 = DIRECTION ( 'NONE',  ( -3.491481338843133355E-15, 0.0000000000000000000, -1.000000000000000000 ) ) ;
#167 = PLANE ( 'NONE',  #277 ) ;
#168 = PERSON_AND_ORGANIZATION ( #50, #189 ) ;
#169 = ADVANCED_FACE ( 'NONE', ( #200, #275 ), #171, .T. ) ;
#170 = FACE_BOUND ( 'NONE', #107, .T. ) ;
#171 = CYLINDRICAL_SURFACE ( 'NONE', #72, 0.8000000000000001554 ) ;
#172 = EDGE_LOOP ( 'NONE', ( #153 ) ) ;
#173 = FACE_OUTER_BOUND ( 'NONE', #279, .T. ) ;
#174 = DIRECTION ( 'NONE',  ( -3.491481338843133355E-15, 0.0000000000000000000, -1.000000000000000000 ) ) ;
#175 = EDGE_LOOP ( 'NONE', ( #58 ) ) ;
#176 = APPROVAL_ROLE ( '' ) ;
#177 = DATE_AND_TIME ( #135, #255 ) ;
#178 = DIRECTION ( 'NONE',  ( -1.000000000000000000, 0.0000000000000000000, 3.423796334164754477E-15 ) ) ;
#179 = EDGE_LOOP ( 'NONE', ( #230 ) ) ;
#180 = DIRECTION ( 'NONE',  ( -3.491481338843133355E-15, 0.0000000000000000000, -1.000000000000000000 ) ) ;
#181 = EDGE_CURVE ( 'NONE', #286, #286, #248, .T. ) ;
#182 = APPLICATION_PROTOCOL_DEFINITION ( 'international standard', 'config_control_design', 1994, #229 ) ;
#183 = DIRECTION ( 'NONE',  ( 1.000000000000000000, 0.0000000000000000000, -3.489775742687717397E-15 ) ) ;
#184 = EDGE_CURVE ( 'NONE', #139, #139, #78, .T. ) ;
#185 = CALENDAR_DATE ( 2021, 17, 12 ) ;
#186 = CARTESIAN_POINT ( 'NONE',  ( 1.955229518578213853E-14, 0.0000000000000000000, 5.599999910714284823 ) ) ;
#187 = MANIFOLD_SOLID_BREP ( 'Corps-Déplacer/Copier1[1]', #260 ) ;
#188 = CIRCLE ( 'NONE', #235, 0.6381483474218597740 ) ;
#189 = ORGANIZATION ( 'UNSPECIFIED', 'UNSPECIFIED', '' ) ;
#190 = FACE_OUTER_BOUND ( 'NONE', #172, .T. ) ;
#191 = DIRECTION ( 'NONE',  ( -3.491481338843133355E-15, 0.0000000000000000000, -1.000000000000000000 ) ) ;
#192 = ADVANCED_FACE ( 'NONE', ( #161, #154 ), #299, .T. ) ;
#193 = AXIS2_PLACEMENT_3D ( 'NONE', #197, #33, #82 ) ;
#194 = LOCAL_TIME ( 9, 27, 4.000000000000000000, #67 ) ;
#195 = DIRECTION ( 'NONE',  ( -1.000000000000000000, 0.0000000000000000000, 3.489775742687715819E-15 ) ) ;
#196 = DIRECTION ( 'NONE',  ( -3.491481338843133355E-15, 0.0000000000000000000, -1.000000000000000000 ) ) ;
#197 = CARTESIAN_POINT ( 'NONE',  ( 1.943845916745426311E-15, -1.058979441364069785E-16, 0.5567395979236423598 ) ) ;
#198 = CC_DESIGN_PERSON_AND_ORGANIZATION_ASSIGNMENT ( #220, #289, ( #1 ) ) ;
#199 =( LENGTH_UNIT ( ) NAMED_UNIT ( * ) SI_UNIT ( .MILLI., .METRE. ) );
#200 = FACE_OUTER_BOUND ( 'NONE', #175, .T. ) ;
#201 = SECURITY_CLASSIFICATION_LEVEL ( 'unclassified' ) ;
#202 = DIRECTION ( 'NONE',  ( -1.000000000000000000, 0.0000000000000000000, 3.491481338843134144E-15 ) ) ;
#203 = EDGE_LOOP ( 'NONE', ( #250 ) ) ;
#204 = DATE_AND_TIME ( #165, #65 ) ;
#205 = CC_DESIGN_SECURITY_CLASSIFICATION ( #20, ( #1 ) ) ;
#206 = CARTESIAN_POINT ( 'NONE',  ( 1.326762908760390423E-13, 0.0000000000000000000, 38.00000000000000000 ) ) ;
#207 = ORIENTED_EDGE ( 'NONE', *, *, #93, .F. ) ;
#208 = APPROVAL_STATUS ( 'not_yet_approved' ) ;
#209 = CARTESIAN_POINT ( 'NONE',  ( -1.499999999999962919, 0.0000000000000000000, 9.334112156928208393 ) ) ;
#210 = ADVANCED_FACE ( 'NONE', ( #26, #25 ), #86, .T. ) ;
#211 = CARTESIAN_POINT ( 'NONE',  ( 3.258987841058365417E-14, 0.0000000000000000000, 9.334112156928203063 ) ) ;
#212 = EDGE_CURVE ( 'NONE', #28, #28, #5, .T. ) ;
#213 = DIRECTION ( 'NONE',  ( 1.000000000000000000, 0.0000000000000000000, 0.0000000000000000000 ) ) ;
#214 = AXIS2_PLACEMENT_3D ( 'NONE', #228, #18, #149 ) ;
#215 = CARTESIAN_POINT ( 'NONE',  ( -0.7999999999999998224, 0.0000000000000000000, 0.1583679121828068248 ) ) ;
#216 = VERTEX_POINT ( 'NONE', #7 ) ;
#217 = FACE_BOUND ( 'NONE', #155, .T. ) ;
#218 = EDGE_CURVE ( 'NONE', #216, #216, #233, .T. ) ;
#219 = DIRECTION ( 'NONE',  ( -1.000000000000000000, 0.0000000000000000000, 3.491481338843133355E-15 ) ) ;
#220 = PERSON_AND_ORGANIZATION ( #50, #189 ) ;
#221 = CC_DESIGN_DATE_AND_TIME_ASSIGNMENT ( #204, #56, ( #20 ) ) ;
#222 = CLOSED_SHELL ( 'NONE', ( #113, #192, #169, #293, #159 ) ) ;
#223 = DIRECTION ( 'NONE',  ( -3.491481338843133355E-15, 0.0000000000000000000, -1.000000000000000000 ) ) ;
#224 = DIRECTION ( 'NONE',  ( -3.491481338843133355E-15, 0.0000000000000000000, -1.000000000000000000 ) ) ;
#225 = ORIENTED_EDGE ( 'NONE', *, *, #218, .T. ) ;
#226 = EDGE_LOOP ( 'NONE', ( #16 ) ) ;
#227 = PERSON_AND_ORGANIZATION ( #50, #189 ) ;
#228 = CARTESIAN_POINT ( 'NONE',  ( 1.943845916745426311E-15, -1.058979441364069785E-16, 0.5567395979236423598 ) ) ;
#229 = APPLICATION_CONTEXT ( 'configuration controlled 3d designs of mechanical parts and assemblies' ) ;
#230 = ORIENTED_EDGE ( 'NONE', *, *, #251, .T. ) ;
#231 = APPROVAL_STATUS ( 'not_yet_approved' ) ;
#232 = DIRECTION ( 'NONE',  ( 1.000000000000000000, 0.0000000000000000000, -3.469446951953624444E-15 ) ) ;
#233 = CIRCLE ( 'NONE', #282, 0.5699999999999993960 ) ;
#234 = CIRCLE ( 'NONE', #97, 1.199999999999995293 ) ;
#235 = AXIS2_PLACEMENT_3D ( 'NONE', #129, #223, #73 ) ;
#236 = APPROVAL_PERSON_ORGANIZATION ( #112, #125, #108 ) ;
#237 = CARTESIAN_POINT ( 'NONE',  ( -0.5689999999999999503, 0.0000000000000000000, 1.932442773177467231E-15 ) ) ;
#238 = APPROVAL_DATE_TIME ( #68, #125 ) ;
#239 = EDGE_CURVE ( 'NONE', #69, #69, #92, .T. ) ;
#240 = AXIS2_PLACEMENT_3D ( 'NONE', #4, #88, #283 ) ;
#241 = LOCAL_TIME ( 9, 27, 4.000000000000000000, #47 ) ;
#242 = EDGE_LOOP ( 'NONE', ( #128 ) ) ;
#243 = ADVANCED_BREP_SHAPE_REPRESENTATION ( '995886', ( #187, #76, #130 ), #300 ) ;
#244 = FACE_OUTER_BOUND ( 'NONE', #179, .T. ) ;
#245 = CC_DESIGN_PERSON_AND_ORGANIZATION_ASSIGNMENT ( #227, #71, ( #20 ) ) ;
#246 = FACE_OUTER_BOUND ( 'NONE', #84, .T. ) ;
#247 = EDGE_LOOP ( 'NONE', ( #207 ) ) ;
#248 = CIRCLE ( 'NONE', #151, 0.8000000000000000444 ) ;
#249 = PERSON_AND_ORGANIZATION_ROLE ( 'design_owner' ) ;
#250 = ORIENTED_EDGE ( 'NONE', *, *, #184, .F. ) ;
#251 = EDGE_CURVE ( 'NONE', #46, #46, #134, .T. ) ;
#252 = CARTESIAN_POINT ( 'NONE',  ( 1.943845916745426705E-15, 0.0000000000000000000, 0.5567395979236424708 ) ) ;
#253 = ORIENTED_EDGE ( 'NONE', *, *, #212, .T. ) ;
#254 = AXIS2_PLACEMENT_3D ( 'NONE', #53, #79, #148 ) ;
#255 = LOCAL_TIME ( 9, 27, 4.000000000000000000, #63 ) ;
#256 = SHAPE_DEFINITION_REPRESENTATION ( #163, #243 ) ;
#257 = DIRECTION ( 'NONE',  ( 0.0000000000000000000, 0.0000000000000000000, 1.000000000000000000 ) ) ;
#258 = CARTESIAN_POINT ( 'NONE',  ( 1.955229518578213853E-14, 0.0000000000000000000, 5.599999910714284823 ) ) ;
#259 = CALENDAR_DATE ( 2021, 17, 12 ) ;
#260 = CLOSED_SHELL ( 'NONE', ( #118, #62, #297, #263, #210, #90, #104 ) ) ;
#261 = AXIS2_PLACEMENT_3D ( 'NONE', #211, #156, #2 ) ;
#262 = CARTESIAN_POINT ( 'NONE',  ( -0.5699999999999798561, 0.0000000000000000000, 5.599999910714286600 ) ) ;
#263 = ADVANCED_FACE ( 'NONE', ( #89, #285 ), #105, .T. ) ;
#264 = FACE_OUTER_BOUND ( 'NONE', #247, .T. ) ;
#265 = VERTEX_POINT ( 'NONE', #215 ) ;
#266 = CARTESIAN_POINT ( 'NONE',  ( 1.326762908760390423E-13, 0.0000000000000000000, 38.00000000000000000 ) ) ;
#267 = DIRECTION ( 'NONE',  ( -3.491481338843133355E-15, 0.0000000000000000000, -1.000000000000000000 ) ) ;
#268 = FACE_OUTER_BOUND ( 'NONE', #298, .T. ) ;
#269 = AXIS2_PLACEMENT_3D ( 'NONE', #258, #180, #43 ) ;
#270 = APPROVAL_PERSON_ORGANIZATION ( #132, #24, #176 ) ;
#271 = DIRECTION ( 'NONE',  ( -1.000000000000000000, 0.0000000000000000000, 5.782411586589379332E-15 ) ) ;
#272 = PRODUCT_RELATED_PRODUCT_CATEGORY ( 'detail', '', ( #96 ) ) ;
#273 = EDGE_LOOP ( 'NONE', ( #301 ) ) ;
#274 = EDGE_LOOP ( 'NONE', ( #253 ) ) ;
#275 = FACE_OUTER_BOUND ( 'NONE', #150, .T. ) ;
#276 = ORIENTED_EDGE ( 'NONE', *, *, #93, .T. ) ;
#277 = AXIS2_PLACEMENT_3D ( 'NONE', #146, #267, #57 ) ;
#278 = APPROVAL ( #284, 'UNSPECIFIED' ) ;
#279 = EDGE_LOOP ( 'NONE', ( #81 ) ) ;
#280 = APPLICATION_PROTOCOL_DEFINITION ( 'international standard', 'config_control_design', 1994, #142 ) ;
#281 = CARTESIAN_POINT ( 'NONE',  ( 1.316288464743861212E-13, 0.0000000000000000000, 37.69999999999999574 ) ) ;
#282 = AXIS2_PLACEMENT_3D ( 'NONE', #252, #303, #178 ) ;
#283 = DIRECTION ( 'NONE',  ( -1.000000000000000000, 0.0000000000000000000, 3.491481338843133355E-15 ) ) ;
#284 = APPROVAL_STATUS ( 'not_yet_approved' ) ;
#285 = FACE_OUTER_BOUND ( 'NONE', #19, .T. ) ;
#286 = VERTEX_POINT ( 'NONE', #45 ) ;
#287 = EDGE_CURVE ( 'NONE', #51, #51, #64, .T. ) ;
#288 = VERTEX_POINT ( 'NONE', #290 ) ;
#289 = PERSON_AND_ORGANIZATION_ROLE ( 'design_supplier' ) ;
#290 = CARTESIAN_POINT ( 'NONE',  ( -1.199999999999862732, 0.0000000000000000000, 38.00000000000000711 ) ) ;
#291 = AXIS2_PLACEMENT_3D ( 'NONE', #102, #174, #202 ) ;
#292 = CONICAL_SURFACE ( 'NONE', #144, 0.5699999999999993960, 0.5235987755983042558 ) ;
#293 = ADVANCED_FACE ( 'NONE', ( #264, #217 ), #292, .T. ) ;
#294 = CARTESIAN_POINT ( 'NONE',  ( 5.529386100578083401E-16, 0.0000000000000000000, 0.1583679121828040215 ) ) ;
#295 = DIRECTION ( 'NONE',  ( -1.000000000000000000, 0.0000000000000000000, 3.489775742687717397E-15 ) ) ;
#296 = DIRECTION ( 'NONE',  ( -1.000000000000000000, 0.0000000000000000000, 3.491481338843132961E-15 ) ) ;
#297 = ADVANCED_FACE ( 'NONE', ( #190, #116 ), #13, .F. ) ;
#298 = EDGE_LOOP ( 'NONE', ( #15 ) ) ;
#299 = CONICAL_SURFACE ( 'NONE', #158, 0.8000000000000000444, 1.047197551196596077 ) ;
#300 =( GEOMETRIC_REPRESENTATION_CONTEXT ( 3 ) GLOBAL_UNCERTAINTY_ASSIGNED_CONTEXT ( ( #145 ) ) GLOBAL_UNIT_ASSIGNED_CONTEXT ( ( #199, #126, #85 ) ) REPRESENTATION_CONTEXT ( 'NONE', 'WORKASPACE' ) );
#301 = ORIENTED_EDGE ( 'NONE', *, *, #287, .F. ) ;
#302 = CARTESIAN_POINT ( 'NONE',  ( 0.0000000000000000000, 0.0000000000000000000, 0.0000000000000000000 ) ) ;
#303 = DIRECTION ( 'NONE',  ( -3.491481338843133355E-15, 0.0000000000000000000, -1.000000000000000000 ) ) ;
ENDSEC;
END-ISO-10303-21;
