ISO-10303-21;
HEADER;
FILE_DESCRIPTION (( 'STEP AP203' ),
    '1' );
FILE_NAME ('995885.step',
    '2021-12-17T08:27:04',
    ( '' ),
    ( '' ),
    'SwSTEP 2.0',
    'SolidWorks 2019',
    '' );
FILE_SCHEMA (( 'CONFIG_CONTROL_DESIGN' ));
ENDSEC;

DATA;
#1 = FACE_OUTER_BOUND ( 'NONE', #279, .T. ) ;
#2 = APPROVAL_DATE_TIME ( #165, #146 ) ;
#3 = EDGE_CURVE ( 'NONE', #74, #74, #72, .T. ) ;
#4 = EDGE_LOOP ( 'NONE', ( #166 ) ) ;
#5 = DATE_AND_TIME ( #215, #6 ) ;
#6 = LOCAL_TIME ( 9, 27, 4.000000000000000000, #220 ) ;
#7 = CARTESIAN_POINT ( 'NONE',  ( -1.199999999999862732, 0.0000000000000000000, 38.00000000000000711 ) ) ;
#8 = AXIS2_PLACEMENT_3D ( 'NONE', #274, #57, #182 ) ;
#9 = UNCERTAINTY_MEASURE_WITH_UNIT (LENGTH_MEASURE( 1.000000000000000082E-05 ), #65, 'distance_accuracy_value', 'NONE');
#10 = VERTEX_POINT ( 'NONE', #80 ) ;
#11 = FACE_OUTER_BOUND ( 'NONE', #216, .T. ) ;
#12 = CARTESIAN_POINT ( 'NONE',  ( 9.463679131915806782E-32, 0.0000000000000000000, 2.710505431213761085E-17 ) ) ;
#13 = FACE_OUTER_BOUND ( 'NONE', #18, .T. ) ;
#14 = DIRECTION ( 'NONE',  ( -3.491481338843133355E-15, 0.0000000000000000000, -1.000000000000000000 ) ) ;
#15 = DIRECTION ( 'NONE',  ( -1.000000000000000000, 0.0000000000000000000, 4.034240641806533025E-15 ) ) ;
#16 = AXIS2_PLACEMENT_3D ( 'NONE', #161, #210, #297 ) ;
#17 = DIRECTION ( 'NONE',  ( 3.491481338843133355E-15, 0.0000000000000000000, 1.000000000000000000 ) ) ;
#18 = EDGE_LOOP ( 'NONE', ( #116 ) ) ;
#19 = CYLINDRICAL_SURFACE ( 'NONE', #125, 0.4299999999999994937 ) ;
#20 = PERSON ( 'UNSPECIFIED', 'UNSPECIFIED', 'UNSPECIFIED', ('UNSPECIFIED'), ('UNSPECIFIED'), ('UNSPECIFIED') ) ;
#21 = ADVANCED_FACE ( 'NONE', ( #1, #144 ), #19, .T. ) ;
#22 = CARTESIAN_POINT ( 'NONE',  ( 0.0000000000000000000, 0.0000000000000000000, 0.0000000000000000000 ) ) ;
#23 = DATE_AND_TIME ( #244, #73 ) ;
#24 = EDGE_LOOP ( 'NONE', ( #191 ) ) ;
#25 = ADVANCED_FACE ( 'NONE', ( #114 ), #157, .F. ) ;
#26 = AXIS2_PLACEMENT_3D ( 'NONE', #301, #153, #228 ) ;
#27 = MANIFOLD_SOLID_BREP ( 'Corps-Déplacer/Copier1[2]', #273 ) ;
#28 = CONICAL_SURFACE ( 'NONE', #170, 0.6299999999999998934, 1.047197551196595855 ) ;
#29 = AXIS2_PLACEMENT_3D ( 'NONE', #61, #129, #259 ) ;
#30 = FACE_BOUND ( 'NONE', #240, .T. ) ;
#31 = DIRECTION ( 'NONE',  ( -3.491481338843133355E-15, 0.0000000000000000000, -1.000000000000000000 ) ) ;
#32 = FACE_OUTER_BOUND ( 'NONE', #212, .T. ) ;
#33 = ORIENTED_EDGE ( 'NONE', *, *, #124, .F. ) ;
#34 = FACE_OUTER_BOUND ( 'NONE', #139, .T. ) ;
#35 = EDGE_LOOP ( 'NONE', ( #42 ) ) ;
#36 = DIRECTION ( 'NONE',  ( -3.491481338843133355E-15, 0.0000000000000000000, -1.000000000000000000 ) ) ;
#37 =( GEOMETRIC_REPRESENTATION_CONTEXT ( 3 ) GLOBAL_UNCERTAINTY_ASSIGNED_CONTEXT ( ( #9 ) ) GLOBAL_UNIT_ASSIGNED_CONTEXT ( ( #65, #117, #147 ) ) REPRESENTATION_CONTEXT ( 'NONE', 'WORKASPACE' ) );
#38 = CC_DESIGN_PERSON_AND_ORGANIZATION_ASSIGNMENT ( #205, #300, ( #198 ) ) ;
#39 = ORIENTED_EDGE ( 'NONE', *, *, #107, .F. ) ;
#40 = CARTESIAN_POINT ( 'NONE',  ( 1.571166447302453548E-14, 0.0000000000000000000, 4.499999555555532993 ) ) ;
#41 = APPLICATION_PROTOCOL_DEFINITION ( 'international standard', 'config_control_design', 1994, #245 ) ;
#42 = ORIENTED_EDGE ( 'NONE', *, *, #238, .T. ) ;
#43 = PERSON_AND_ORGANIZATION ( #20, #108 ) ;
#44 = CC_DESIGN_PERSON_AND_ORGANIZATION_ASSIGNMENT ( #43, #68, ( #154 ) ) ;
#45 = CIRCLE ( 'NONE', #87, 0.4299999999999994382 ) ;
#46 = CIRCLE ( 'NONE', #79, 0.4299999999999994937 ) ;
#47 = DIRECTION ( 'NONE',  ( -1.000000000000000000, 0.0000000000000000000, 3.484935554417692260E-15 ) ) ;
#48 = EDGE_CURVE ( 'NONE', #269, #269, #45, .T. ) ;
#49 = PRODUCT ( '995885', '995885', '', ( #211 ) ) ;
#50 = ADVANCED_FACE ( 'NONE', ( #278, #52 ), #28, .T. ) ;
#51 = VERTEX_POINT ( 'NONE', #7 ) ;
#52 = FACE_OUTER_BOUND ( 'NONE', #83, .T. ) ;
#53 = APPROVAL_PERSON_ORGANIZATION ( #241, #285, #123 ) ;
#54 = CARTESIAN_POINT ( 'NONE',  ( 3.057350170285987322E-14, 0.0000000000000000000, 8.756598914829110569 ) ) ;
#55 = CC_DESIGN_APPROVAL ( #285, ( #197 ) ) ;
#56 = DIRECTION ( 'NONE',  ( -3.491481338843133355E-15, 0.0000000000000000000, -1.000000000000000000 ) ) ;
#57 = DIRECTION ( 'NONE',  ( -3.491481338843133355E-15, 0.0000000000000000000, -1.000000000000000000 ) ) ;
#58 = CARTESIAN_POINT ( 'NONE',  ( -0.6299999999999994493, 0.0000000000000000000, 0.1166247543763070105 ) ) ;
#59 = DIRECTION ( 'NONE',  ( -3.491481338843133355E-15, 0.0000000000000000000, -1.000000000000000000 ) ) ;
#60 = AXIS2_PLACEMENT_3D ( 'NONE', #159, #213, #85 ) ;
#61 = CARTESIAN_POINT ( 'NONE',  ( 1.326762908760390423E-13, 0.0000000000000000000, 38.00000000000000000 ) ) ;
#62 = TOROIDAL_SURFACE ( 'NONE', #239, 2.429999999999999272, 2.000000000000000000 ) ;
#63 = PERSON_AND_ORGANIZATION_ROLE ( 'design_owner' ) ;
#64 = CARTESIAN_POINT ( 'NONE',  ( 4.071931535520322893E-16, 0.0000000000000000000, 0.1166247543763048178 ) ) ;
#65 =( LENGTH_UNIT ( ) NAMED_UNIT ( * ) SI_UNIT ( .MILLI., .METRE. ) );
#66 = EDGE_CURVE ( 'NONE', #270, #270, #302, .T. ) ;
#67 = AXIS2_PLACEMENT_3D ( 'NONE', #64, #190, #163 ) ;
#68 = PERSON_AND_ORGANIZATION_ROLE ( 'creator' ) ;
#69 = APPROVAL_STATUS ( 'not_yet_approved' ) ;
#70 = PERSON_AND_ORGANIZATION ( #20, #108 ) ;
#71 = PRODUCT_RELATED_PRODUCT_CATEGORY ( 'detail', '', ( #49 ) ) ;
#72 = CIRCLE ( 'NONE', #169, 0.6300000000000001155 ) ;
#73 = LOCAL_TIME ( 9, 27, 4.000000000000000000, #145 ) ;
#74 = VERTEX_POINT ( 'NONE', #174 ) ;
#75 = CARTESIAN_POINT ( 'NONE',  ( -0.4299999999999837286, 0.0000000000000000000, 4.499999555555534769 ) ) ;
#76 = DESIGN_CONTEXT ( 'detailed design', #245, 'design' ) ;
#77 = CYLINDRICAL_SURFACE ( 'NONE', #251, 0.6300000000000000044 ) ;
#78 = ADVANCED_BREP_SHAPE_REPRESENTATION ( '995885', ( #135, #27, #151 ), #37 ) ;
#79 = AXIS2_PLACEMENT_3D ( 'NONE', #295, #59, #234 ) ;
#80 = CARTESIAN_POINT ( 'NONE',  ( -1.499999999999964917, 0.0000000000000000000, 8.756598914829115898 ) ) ;
#81 = EDGE_LOOP ( 'NONE', ( #113 ) ) ;
#82 = DIRECTION ( 'NONE',  ( -1.000000000000000000, 0.0000000000000000000, 4.625929269271500311E-15 ) ) ;
#83 = EDGE_LOOP ( 'NONE', ( #105 ) ) ;
#84 = CC_DESIGN_DATE_AND_TIME_ASSIGNMENT ( #265, #287, ( #197 ) ) ;
#85 = DIRECTION ( 'NONE',  ( 1.000000000000000000, 0.0000000000000000000, -3.491481338843133355E-15 ) ) ;
#86 = DIRECTION ( 'NONE',  ( -3.491481338843133355E-15, 0.0000000000000000000, -1.000000000000000000 ) ) ;
#87 = AXIS2_PLACEMENT_3D ( 'NONE', #40, #271, #15 ) ;
#88 = DIRECTION ( 'NONE',  ( -1.000000000000000000, 0.0000000000000000000, 3.482343131227426478E-15 ) ) ;
#89 = DATE_AND_TIME ( #223, #199 ) ;
#90 = ORIENTED_EDGE ( 'NONE', *, *, #164, .F. ) ;
#91 = EDGE_LOOP ( 'NONE', ( #248 ) ) ;
#92 = CONICAL_SURFACE ( 'NONE', #233, 1.199999999999995293, 0.7853981633974453924 ) ;
#93 = ADVANCED_FACE ( 'NONE', ( #204 ), #236, .F. ) ;
#94 = PERSON_AND_ORGANIZATION_ROLE ( 'design_supplier' ) ;
#95 = CALENDAR_DATE ( 2021, 17, 12 ) ;
#96 = ORIENTED_EDGE ( 'NONE', *, *, #3, .F. ) ;
#97 = LOCAL_TIME ( 9, 27, 4.000000000000000000, #195 ) ;
#98 = PERSON_AND_ORGANIZATION ( #20, #108 ) ;
#99 = EDGE_CURVE ( 'NONE', #51, #51, #222, .T. ) ;
#100 = AXIS2_PLACEMENT_3D ( 'NONE', #262, #283, #88 ) ;
#101 = VERTEX_POINT ( 'NONE', #276 ) ;
#102 = PRODUCT_DEFINITION_SHAPE ( 'NONE', 'NONE',  #198 ) ;
#103 = CARTESIAN_POINT ( 'NONE',  ( 4.071931535520322893E-16, 0.0000000000000000000, 0.1166247543763048178 ) ) ;
#104 = CARTESIAN_POINT ( 'NONE',  ( -0.4299999999999978284, 0.0000000000000000000, 0.4850349158900789104 ) ) ;
#105 = ORIENTED_EDGE ( 'NONE', *, *, #255, .T. ) ;
#106 = DIRECTION ( 'NONE',  ( -1.000000000000000000, 0.0000000000000000000, 3.491481338843132961E-15 ) ) ;
#107 = EDGE_CURVE ( 'NONE', #206, #206, #249, .T. ) ;
#108 = ORGANIZATION ( 'UNSPECIFIED', 'UNSPECIFIED', '' ) ;
#109 = FACE_OUTER_BOUND ( 'NONE', #231, .T. ) ;
#110 = DIRECTION ( 'NONE',  ( -1.000000000000000000, 0.0000000000000000000, 3.491481338843133355E-15 ) ) ;
#111 = DIRECTION ( 'NONE',  ( -1.000000000000000000, 0.0000000000000000000, 3.529960561580716101E-15 ) ) ;
#112 = CARTESIAN_POINT ( 'NONE',  ( 0.0000000000000000000, 0.0000000000000000000, 0.0000000000000000000 ) ) ;
#113 = ORIENTED_EDGE ( 'NONE', *, *, #48, .F. ) ;
#114 = FACE_OUTER_BOUND ( 'NONE', #185, .T. ) ;
#115 = ADVANCED_FACE ( 'NONE', ( #201, #109 ), #250, .T. ) ;
#116 = ORIENTED_EDGE ( 'NONE', *, *, #3, .T. ) ;
#117 =( NAMED_UNIT ( * ) PLANE_ANGLE_UNIT ( ) SI_UNIT ( $, .RADIAN. ) );
#118 = ORIENTED_EDGE ( 'NONE', *, *, #290, .T. ) ;
#119 = PERSON_AND_ORGANIZATION ( #20, #108 ) ;
#120 = DIRECTION ( 'NONE',  ( 0.0000000000000000000, 0.0000000000000000000, 1.000000000000000000 ) ) ;
#121 = ADVANCED_FACE ( 'NONE', ( #292, #155 ), #92, .T. ) ;
#122 = CONICAL_SURFACE ( 'NONE', #303, 0.4299999999999994937, 0.5235987755983038117 ) ;
#123 = APPROVAL_ROLE ( '' ) ;
#124 = EDGE_CURVE ( 'NONE', #10, #10, #214, .T. ) ;
#125 = AXIS2_PLACEMENT_3D ( 'NONE', #22, #36, #176 ) ;
#126 = CC_DESIGN_PERSON_AND_ORGANIZATION_ASSIGNMENT ( #70, #94, ( #154 ) ) ;
#127 = LOCAL_TIME ( 9, 27, 4.000000000000000000, #286 ) ;
#128 = DIRECTION ( 'NONE',  ( -1.000000000000000000, 0.0000000000000000000, 3.491481338843133355E-15 ) ) ;
#129 = DIRECTION ( 'NONE',  ( -3.491481338843133355E-15, 0.0000000000000000000, -1.000000000000000000 ) ) ;
#130 = CARTESIAN_POINT ( 'NONE',  ( 1.316288464743861212E-13, 0.0000000000000000000, 37.69999999999999574 ) ) ;
#131 = CC_DESIGN_PERSON_AND_ORGANIZATION_ASSIGNMENT ( #247, #242, ( #197 ) ) ;
#132 = FACE_OUTER_BOUND ( 'NONE', #35, .T. ) ;
#133 = EDGE_LOOP ( 'NONE', ( #203 ) ) ;
#134 = CARTESIAN_POINT ( 'NONE',  ( 1.693490357517554095E-15, 0.0000000000000000000, 0.4850349158900774116 ) ) ;
#135 = MANIFOLD_SOLID_BREP ( 'Corps-Déplacer/Copier1[1]', #225 ) ;
#136 = AXIS2_PLACEMENT_3D ( 'NONE', #232, #56, #138 ) ;
#137 = CARTESIAN_POINT ( 'NONE',  ( -0.4280000000000001026, 0.0000000000000000000, 1.521459067336999097E-15 ) ) ;
#138 = DIRECTION ( 'NONE',  ( -1.000000000000000000, 0.0000000000000000000, 3.469446951953624444E-15 ) ) ;
#139 = EDGE_LOOP ( 'NONE', ( #96 ) ) ;
#140 = DIRECTION ( 'NONE',  ( -3.491481338843133355E-15, 0.0000000000000000000, -1.000000000000000000 ) ) ;
#141 = EDGE_LOOP ( 'NONE', ( #294 ) ) ;
#142 = ORIENTED_EDGE ( 'NONE', *, *, #107, .T. ) ;
#143 = CIRCLE ( 'NONE', #100, 0.4981483474218597607 ) ;
#144 = FACE_OUTER_BOUND ( 'NONE', #4, .T. ) ;
#145 = COORDINATED_UNIVERSAL_TIME_OFFSET ( 1, 0, .AHEAD. ) ;
#146 = APPROVAL ( #69, 'UNSPECIFIED' ) ;
#147 =( NAMED_UNIT ( * ) SI_UNIT ( $, .STERADIAN. ) SOLID_ANGLE_UNIT ( ) );
#148 = CC_DESIGN_APPROVAL ( #146, ( #154 ) ) ;
#149 = CALENDAR_DATE ( 2021, 17, 12 ) ;
#150 = ORIENTED_EDGE ( 'NONE', *, *, #66, .F. ) ;
#151 = AXIS2_PLACEMENT_3D ( 'NONE', #112, #120, #298 ) ;
#152 = VERTEX_POINT ( 'NONE', #158 ) ;
#153 = DIRECTION ( 'NONE',  ( 3.491481338843133355E-15, 0.0000000000000000000, 1.000000000000000000 ) ) ;
#154 = PRODUCT_DEFINITION_FORMATION_WITH_SPECIFIED_SOURCE ( 'ANY', '', #49, .NOT_KNOWN. ) ;
#155 = FACE_BOUND ( 'NONE', #141, .T. ) ;
#156 = PLANE ( 'NONE',  #160 ) ;
#157 = PLANE ( 'NONE',  #60 ) ;
#158 = CARTESIAN_POINT ( 'NONE',  ( -0.4299999999999978284, 0.0000000000000000000, 0.4850349158900789104 ) ) ;
#159 = CARTESIAN_POINT ( 'NONE',  ( 4.731839565957903391E-32, 0.0000000000000000000, 1.355252715606880543E-17 ) ) ;
#160 = AXIS2_PLACEMENT_3D ( 'NONE', #230, #293, #200 ) ;
#161 = CARTESIAN_POINT ( 'NONE',  ( 0.0000000000000000000, 0.0000000000000000000, 0.0000000000000000000 ) ) ;
#162 = EDGE_LOOP ( 'NONE', ( #181 ) ) ;
#163 = DIRECTION ( 'NONE',  ( -1.000000000000000000, 0.0000000000000000000, 3.484935554417693443E-15 ) ) ;
#164 = EDGE_CURVE ( 'NONE', #152, #152, #46, .T. ) ;
#165 = DATE_AND_TIME ( #149, #97 ) ;
#166 = ORIENTED_EDGE ( 'NONE', *, *, #48, .T. ) ;
#167 = SECURITY_CLASSIFICATION_LEVEL ( 'unclassified' ) ;
#168 = APPROVAL ( #171, 'UNSPECIFIED' ) ;
#169 = AXIS2_PLACEMENT_3D ( 'NONE', #266, #243, #47 ) ;
#170 = AXIS2_PLACEMENT_3D ( 'NONE', #103, #229, #184 ) ;
#171 = APPROVAL_STATUS ( 'not_yet_approved' ) ;
#172 = AXIS2_PLACEMENT_3D ( 'NONE', #208, #86, #111 ) ;
#173 = APPROVAL_ROLE ( '' ) ;
#174 = CARTESIAN_POINT ( 'NONE',  ( -0.6299999999999996714, 0.0000000000000000000, 0.1386247543763070023 ) ) ;
#175 = COORDINATED_UNIVERSAL_TIME_OFFSET ( 1, 0, .AHEAD. ) ;
#176 = DIRECTION ( 'NONE',  ( -1.000000000000000000, 0.0000000000000000000, 3.491481338843133355E-15 ) ) ;
#177 = ADVANCED_FACE ( 'NONE', ( #34, #30 ), #122, .T. ) ;
#178 = FACE_OUTER_BOUND ( 'NONE', #261, .T. ) ;
#179 = CARTESIAN_POINT ( 'NONE',  ( 1.326762908760390423E-13, 0.0000000000000000000, 38.00000000000000000 ) ) ;
#180 = CARTESIAN_POINT ( 'NONE',  ( 1.571166447302453548E-14, 0.0000000000000000000, 4.499999555555532993 ) ) ;
#181 = ORIENTED_EDGE ( 'NONE', *, *, #238, .F. ) ;
#182 = DIRECTION ( 'NONE',  ( -1.000000000000000000, 0.0000000000000000000, 5.782411586589379332E-15 ) ) ;
#183 = VERTEX_POINT ( 'NONE', #58 ) ;
#184 = DIRECTION ( 'NONE',  ( 1.000000000000000000, 0.0000000000000000000, -3.484935554417693443E-15 ) ) ;
#185 = EDGE_LOOP ( 'NONE', ( #118 ) ) ;
#186 = FACE_OUTER_BOUND ( 'NONE', #91, .T. ) ;
#187 = CC_DESIGN_DATE_AND_TIME_ASSIGNMENT ( #23, #264, ( #198 ) ) ;
#188 = AXIS2_PLACEMENT_3D ( 'NONE', #130, #277, #82 ) ;
#189 = PERSON_AND_ORGANIZATION ( #20, #108 ) ;
#190 = DIRECTION ( 'NONE',  ( -3.491481338843133355E-15, 0.0000000000000000000, -1.000000000000000000 ) ) ;
#191 = ORIENTED_EDGE ( 'NONE', *, *, #290, .F. ) ;
#192 = APPLICATION_PROTOCOL_DEFINITION ( 'international standard', 'config_control_design', 1994, #217 ) ;
#193 = APPROVAL_PERSON_ORGANIZATION ( #98, #168, #173 ) ;
#194 = SHAPE_DEFINITION_REPRESENTATION ( #102, #78 ) ;
#195 = COORDINATED_UNIVERSAL_TIME_OFFSET ( 1, 0, .AHEAD. ) ;
#196 = ORIENTED_EDGE ( 'NONE', *, *, #124, .T. ) ;
#197 = SECURITY_CLASSIFICATION ( '', '', #167 ) ;
#198 = PRODUCT_DEFINITION ( 'UNKNOWN', '', #154, #76 ) ;
#199 = LOCAL_TIME ( 9, 27, 4.000000000000000000, #175 ) ;
#200 = DIRECTION ( 'NONE',  ( 1.000000000000000000, 0.0000000000000000000, -3.491481338843133355E-15 ) ) ;
#201 = FACE_OUTER_BOUND ( 'NONE', #235, .T. ) ;
#202 = CARTESIAN_POINT ( 'NONE',  ( -1.499999999999863665, 0.0000000000000000000, 37.70000000000000284 ) ) ;
#203 = ORIENTED_EDGE ( 'NONE', *, *, #164, .T. ) ;
#204 = FACE_OUTER_BOUND ( 'NONE', #133, .T. ) ;
#205 = PERSON_AND_ORGANIZATION ( #20, #108 ) ;
#206 = VERTEX_POINT ( 'NONE', #202 ) ;
#207 = ORIENTED_EDGE ( 'NONE', *, *, #255, .F. ) ;
#208 = CARTESIAN_POINT ( 'NONE',  ( 1.693490357517554095E-15, 0.0000000000000000000, 0.4850349158900774116 ) ) ;
#209 = ADVANCED_FACE ( 'NONE', ( #186 ), #280, .F. ) ;
#210 = DIRECTION ( 'NONE',  ( -3.491481338843133355E-15, 0.0000000000000000000, -1.000000000000000000 ) ) ;
#211 = MECHANICAL_CONTEXT ( 'NONE', #217, 'mechanical' ) ;
#212 = EDGE_LOOP ( 'NONE', ( #196 ) ) ;
#213 = DIRECTION ( 'NONE',  ( 3.491481338843133355E-15, 0.0000000000000000000, 1.000000000000000000 ) ) ;
#214 = CIRCLE ( 'NONE', #136, 1.499999999999995559 ) ;
#215 = CALENDAR_DATE ( 2021, 17, 12 ) ;
#216 = EDGE_LOOP ( 'NONE', ( #207 ) ) ;
#217 = APPLICATION_CONTEXT ( 'configuration controlled 3d designs of mechanical parts and assemblies' ) ;
#218 = CC_DESIGN_APPROVAL ( #168, ( #198 ) ) ;
#219 = APPROVAL_STATUS ( 'not_yet_approved' ) ;
#220 = COORDINATED_UNIVERSAL_TIME_OFFSET ( 1, 0, .AHEAD. ) ;
#221 = EDGE_LOOP ( 'NONE', ( #39 ) ) ;
#222 = CIRCLE ( 'NONE', #8, 1.199999999999995293 ) ;
#223 = CALENDAR_DATE ( 2021, 17, 12 ) ;
#224 = ADVANCED_FACE ( 'NONE', ( #11, #13 ), #77, .T. ) ;
#225 = CLOSED_SHELL ( 'NONE', ( #93, #21, #260, #288, #115, #121, #209 ) ) ;
#226 = CONICAL_SURFACE ( 'NONE', #296, 1.499999999999995559, 0.2617993877991425244 ) ;
#227 = DIRECTION ( 'NONE',  ( 1.000000000000000000, 0.0000000000000000000, -3.469446951953624444E-15 ) ) ;
#228 = DIRECTION ( 'NONE',  ( 1.000000000000000000, 0.0000000000000000000, -3.491481338843133355E-15 ) ) ;
#229 = DIRECTION ( 'NONE',  ( 3.491481338843133355E-15, 0.0000000000000000000, 1.000000000000000000 ) ) ;
#230 = CARTESIAN_POINT ( 'NONE',  ( 1.693490357517554095E-15, -6.114836157434259372E-17, 0.4850349158900774116 ) ) ;
#231 = EDGE_LOOP ( 'NONE', ( #142 ) ) ;
#232 = CARTESIAN_POINT ( 'NONE',  ( 3.057350170285987322E-14, 0.0000000000000000000, 8.756598914829110569 ) ) ;
#233 = AXIS2_PLACEMENT_3D ( 'NONE', #179, #254, #257 ) ;
#234 = DIRECTION ( 'NONE',  ( -1.000000000000000000, 0.0000000000000000000, 3.529960561580716101E-15 ) ) ;
#235 = EDGE_LOOP ( 'NONE', ( #33 ) ) ;
#236 = PLANE ( 'NONE',  #26 ) ;
#237 = APPROVAL_DATE_TIME ( #89, #168 ) ;
#238 = EDGE_CURVE ( 'NONE', #101, #101, #143, .T. ) ;
#239 = AXIS2_PLACEMENT_3D ( 'NONE', #180, #253, #128 ) ;
#240 = EDGE_LOOP ( 'NONE', ( #263 ) ) ;
#241 = PERSON_AND_ORGANIZATION ( #20, #108 ) ;
#242 = PERSON_AND_ORGANIZATION_ROLE ( 'classification_officer' ) ;
#243 = DIRECTION ( 'NONE',  ( -3.491481338843133355E-15, 0.0000000000000000000, -1.000000000000000000 ) ) ;
#244 = CALENDAR_DATE ( 2021, 17, 12 ) ;
#245 = APPLICATION_CONTEXT ( 'configuration controlled 3d designs of mechanical parts and assemblies' ) ;
#246 = CC_DESIGN_PERSON_AND_ORGANIZATION_ASSIGNMENT ( #189, #63, ( #49 ) ) ;
#247 = PERSON_AND_ORGANIZATION ( #20, #108 ) ;
#248 = ORIENTED_EDGE ( 'NONE', *, *, #99, .F. ) ;
#249 = CIRCLE ( 'NONE', #188, 1.499999999999995337 ) ;
#250 = CYLINDRICAL_SURFACE ( 'NONE', #16, 1.499999999999995337 ) ;
#251 = AXIS2_PLACEMENT_3D ( 'NONE', #252, #31, #106 ) ;
#252 = CARTESIAN_POINT ( 'NONE',  ( 0.0000000000000000000, 0.0000000000000000000, 0.0000000000000000000 ) ) ;
#253 = DIRECTION ( 'NONE',  ( -3.491481338843133355E-15, 0.0000000000000000000, -1.000000000000000000 ) ) ;
#254 = DIRECTION ( 'NONE',  ( -3.491481338843133355E-15, 0.0000000000000000000, -1.000000000000000000 ) ) ;
#255 = EDGE_CURVE ( 'NONE', #183, #183, #268, .T. ) ;
#256 = VERTEX_POINT ( 'NONE', #137 ) ;
#257 = DIRECTION ( 'NONE',  ( -1.000000000000000000, 0.0000000000000000000, 5.782411586589379332E-15 ) ) ;
#258 = CC_DESIGN_SECURITY_CLASSIFICATION ( #197, ( #154 ) ) ;
#259 = DIRECTION ( 'NONE',  ( -1.000000000000000000, 0.0000000000000000000, 3.491481338843133355E-15 ) ) ;
#260 = ADVANCED_FACE ( 'NONE', ( #291, #132 ), #62, .F. ) ;
#261 = EDGE_LOOP ( 'NONE', ( #150 ) ) ;
#262 = CARTESIAN_POINT ( 'NONE',  ( 1.751898820524979344E-14, 0.0000000000000000000, 5.017637645760561149 ) ) ;
#263 = ORIENTED_EDGE ( 'NONE', *, *, #66, .T. ) ;
#264 = DATE_TIME_ROLE ( 'creation_date' ) ;
#265 = DATE_AND_TIME ( #95, #127 ) ;
#266 = CARTESIAN_POINT ( 'NONE',  ( 4.840057430065812567E-16, 0.0000000000000000000, 0.1386247543763048096 ) ) ;
#267 = APPROVAL_ROLE ( '' ) ;
#268 = CIRCLE ( 'NONE', #67, 0.6299999999999998934 ) ;
#269 = VERTEX_POINT ( 'NONE', #75 ) ;
#270 = VERTEX_POINT ( 'NONE', #104 ) ;
#271 = DIRECTION ( 'NONE',  ( -3.491481338843133355E-15, 0.0000000000000000000, -1.000000000000000000 ) ) ;
#272 = FACE_BOUND ( 'NONE', #162, .T. ) ;
#273 = CLOSED_SHELL ( 'NONE', ( #25, #50, #224, #177, #282 ) ) ;
#274 = CARTESIAN_POINT ( 'NONE',  ( 1.326762908760390423E-13, 0.0000000000000000000, 38.00000000000000000 ) ) ;
#275 = CIRCLE ( 'NONE', #289, 0.4280000000000001026 ) ;
#276 = CARTESIAN_POINT ( 'NONE',  ( -0.4981483474218421637, 0.0000000000000000000, 5.017637645760562926 ) ) ;
#277 = DIRECTION ( 'NONE',  ( -3.491481338843133355E-15, 0.0000000000000000000, -1.000000000000000000 ) ) ;
#278 = FACE_BOUND ( 'NONE', #24, .T. ) ;
#279 = EDGE_LOOP ( 'NONE', ( #90 ) ) ;
#280 = PLANE ( 'NONE',  #29 ) ;
#281 = APPROVAL_PERSON_ORGANIZATION ( #119, #146, #267 ) ;
#282 = ADVANCED_FACE ( 'NONE', ( #178 ), #156, .T. ) ;
#283 = DIRECTION ( 'NONE',  ( -3.491481338843133355E-15, 0.0000000000000000000, -1.000000000000000000 ) ) ;
#284 = APPROVAL_DATE_TIME ( #5, #285 ) ;
#285 = APPROVAL ( #219, 'UNSPECIFIED' ) ;
#286 = COORDINATED_UNIVERSAL_TIME_OFFSET ( 1, 0, .AHEAD. ) ;
#287 = DATE_TIME_ROLE ( 'classification_date' ) ;
#288 = ADVANCED_FACE ( 'NONE', ( #272, #32 ), #226, .T. ) ;
#289 = AXIS2_PLACEMENT_3D ( 'NONE', #12, #14, #110 ) ;
#290 = EDGE_CURVE ( 'NONE', #256, #256, #275, .T. ) ;
#291 = FACE_OUTER_BOUND ( 'NONE', #81, .T. ) ;
#292 = FACE_OUTER_BOUND ( 'NONE', #221, .T. ) ;
#293 = DIRECTION ( 'NONE',  ( 3.491481338843133355E-15, 0.0000000000000000000, 1.000000000000000000 ) ) ;
#294 = ORIENTED_EDGE ( 'NONE', *, *, #99, .T. ) ;
#295 = CARTESIAN_POINT ( 'NONE',  ( 1.693490357517554095E-15, 0.0000000000000000000, 0.4850349158900774116 ) ) ;
#296 = AXIS2_PLACEMENT_3D ( 'NONE', #54, #17, #227 ) ;
#297 = DIRECTION ( 'NONE',  ( -1.000000000000000000, 0.0000000000000000000, 3.491481338843133355E-15 ) ) ;
#298 = DIRECTION ( 'NONE',  ( 1.000000000000000000, 0.0000000000000000000, 0.0000000000000000000 ) ) ;
#299 = DIRECTION ( 'NONE',  ( -1.000000000000000000, 0.0000000000000000000, 3.529960561580716101E-15 ) ) ;
#300 = PERSON_AND_ORGANIZATION_ROLE ( 'creator' ) ;
#301 = CARTESIAN_POINT ( 'NONE',  ( 1.693490357517554095E-15, -6.114836157434259372E-17, 0.4850349158900774116 ) ) ;
#302 = CIRCLE ( 'NONE', #172, 0.4299999999999994937 ) ;
#303 = AXIS2_PLACEMENT_3D ( 'NONE', #134, #140, #299 ) ;
ENDSEC;
END-ISO-10303-21;
