ISO-10303-21;
HEADER;
FILE_DESCRIPTION (( 'STEP AP203' ),
    '1' );
FILE_NAME ('995884.step',
    '2021-12-17T08:27:03',
    ( '' ),
    ( '' ),
    'SwSTEP 2.0',
    'SolidWorks 2019',
    '' );
FILE_SCHEMA (( 'CONFIG_CONTROL_DESIGN' ));
ENDSEC;

DATA;
#1 = EDGE_LOOP ( 'NONE', ( #215 ) ) ;
#2 = DIRECTION ( 'NONE',  ( -3.491481338843133355E-15, 0.0000000000000000000, -1.000000000000000000 ) ) ;
#3 = EDGE_LOOP ( 'NONE', ( #281 ) ) ;
#4 = APPROVAL ( #22, 'UNSPECIFIED' ) ;
#5 = CIRCLE ( 'NONE', #206, 0.3849999999999996203 ) ;
#6 = APPROVAL_PERSON_ORGANIZATION ( #223, #51, #87 ) ;
#7 = DIRECTION ( 'NONE',  ( -3.491481338843133355E-15, 0.0000000000000000000, -1.000000000000000000 ) ) ;
#8 = ORIENTED_EDGE ( 'NONE', *, *, #190, .T. ) ;
#9 = FACE_OUTER_BOUND ( 'NONE', #255, .T. ) ;
#10 = APPROVAL_DATE_TIME ( #13, #77 ) ;
#11 = CC_DESIGN_SECURITY_CLASSIFICATION ( #251, ( #145 ) ) ;
#12 = CARTESIAN_POINT ( 'NONE',  ( -1.499999999999863665, 0.0000000000000000000, 37.70000000000000284 ) ) ;
#13 = DATE_AND_TIME ( #27, #173 ) ;
#14 = DIRECTION ( 'NONE',  ( 1.000000000000000000, 0.0000000000000000000, -3.469446951953624444E-15 ) ) ;
#15 = CC_DESIGN_PERSON_AND_ORGANIZATION_ASSIGNMENT ( #39, #220, ( #145 ) ) ;
#16 = DIRECTION ( 'NONE',  ( -1.000000000000000000, 0.0000000000000000000, 3.520136923654238602E-15 ) ) ;
#17 = CALENDAR_DATE ( 2021, 17, 12 ) ;
#18 = DIRECTION ( 'NONE',  ( 3.491481338843133355E-15, 0.0000000000000000000, 1.000000000000000000 ) ) ;
#19 = AXIS2_PLACEMENT_3D ( 'NONE', #60, #222, #16 ) ;
#20 =( LENGTH_UNIT ( ) NAMED_UNIT ( * ) SI_UNIT ( .MILLI., .METRE. ) );
#21 = CARTESIAN_POINT ( 'NONE',  ( 0.0000000000000000000, 0.0000000000000000000, 0.0000000000000000000 ) ) ;
#22 = APPROVAL_STATUS ( 'not_yet_approved' ) ;
#23 = EDGE_LOOP ( 'NONE', ( #76 ) ) ;
#24 = EDGE_LOOP ( 'NONE', ( #100 ) ) ;
#25 = SHAPE_DEFINITION_REPRESENTATION ( #75, #86 ) ;
#26 = EDGE_CURVE ( 'NONE', #94, #94, #272, .T. ) ;
#27 = CALENDAR_DATE ( 2021, 17, 12 ) ;
#28 = AXIS2_PLACEMENT_3D ( 'NONE', #234, #260, #55 ) ;
#29 = ORIENTED_EDGE ( 'NONE', *, *, #129, .F. ) ;
#30 = ORIENTED_EDGE ( 'NONE', *, *, #208, .T. ) ;
#31 = DIRECTION ( 'NONE',  ( -1.000000000000000000, 0.0000000000000000000, 3.491481338843133355E-15 ) ) ;
#32 = CC_DESIGN_APPROVAL ( #77, ( #142 ) ) ;
#33 = CARTESIAN_POINT ( 'NONE',  ( 1.396592360963175627E-14, 0.0000000000000000000, 3.999999499999969288 ) ) ;
#34 = DIRECTION ( 'NONE',  ( -1.000000000000000000, 0.0000000000000000000, 4.505775262277425348E-15 ) ) ;
#35 = APPLICATION_CONTEXT ( 'configuration controlled 3d designs of mechanical parts and assemblies' ) ;
#36 = CARTESIAN_POINT ( 'NONE',  ( -0.3870000000000001217, 0.0000000000000000000, 1.432518441068705899E-15 ) ) ;
#37 = CYLINDRICAL_SURFACE ( 'NONE', #303, 0.5600000000000000533 ) ;
#38 = CIRCLE ( 'NONE', #91, 0.5600000000000000533 ) ;
#39 = PERSON_AND_ORGANIZATION ( #258, #135 ) ;
#40 =( NAMED_UNIT ( * ) PLANE_ANGLE_UNIT ( ) SI_UNIT ( $, .RADIAN. ) );
#41 = DIRECTION ( 'NONE',  ( -1.000000000000000000, 0.0000000000000000000, 4.625929269271500311E-15 ) ) ;
#42 = DESIGN_CONTEXT ( 'detailed design', #35, 'design' ) ;
#43 = COORDINATED_UNIVERSAL_TIME_OFFSET ( 1, 0, .AHEAD. ) ;
#44 = VERTEX_POINT ( 'NONE', #69 ) ;
#45 = VERTEX_POINT ( 'NONE', #12 ) ;
#46 = APPROVAL_PERSON_ORGANIZATION ( #252, #4, #231 ) ;
#47 = CALENDAR_DATE ( 2021, 17, 12 ) ;
#48 = EDGE_LOOP ( 'NONE', ( #29 ) ) ;
#49 = CIRCLE ( 'NONE', #28, 0.4531483474218602758 ) ;
#50 = AXIS2_PLACEMENT_3D ( 'NONE', #270, #120, #137 ) ;
#51 = APPROVAL ( #295, 'UNSPECIFIED' ) ;
#52 = APPROVAL_ROLE ( '' ) ;
#53 = APPLICATION_CONTEXT ( 'configuration controlled 3d designs of mechanical parts and assemblies' ) ;
#54 = FACE_OUTER_BOUND ( 'NONE', #59, .T. ) ;
#55 = DIRECTION ( 'NONE',  ( -1.000000000000000000, 0.0000000000000000000, 3.828158010166722430E-15 ) ) ;
#56 = ORIENTED_EDGE ( 'NONE', *, *, #123, .T. ) ;
#57 = PRODUCT_RELATED_PRODUCT_CATEGORY ( 'detail', '', ( #149 ) ) ;
#58 = ORIENTED_EDGE ( 'NONE', *, *, #63, .F. ) ;
#59 = EDGE_LOOP ( 'NONE', ( #72 ) ) ;
#60 = CARTESIAN_POINT ( 'NONE',  ( 1.473371913652455148E-15, 0.0000000000000000000, 0.4219904878943565585 ) ) ;
#61 = DATE_AND_TIME ( #17, #92 ) ;
#62 = FACE_OUTER_BOUND ( 'NONE', #23, .T. ) ;
#63 = EDGE_CURVE ( 'NONE', #141, #141, #263, .T. ) ;
#64 = PERSON_AND_ORGANIZATION ( #258, #135 ) ;
#65 = CARTESIAN_POINT ( 'NONE',  ( 0.0000000000000000000, 0.0000000000000000000, 0.0000000000000000000 ) ) ;
#66 = CARTESIAN_POINT ( 'NONE',  ( 1.396592360963175627E-14, 0.0000000000000000000, 3.999999499999969288 ) ) ;
#67 = DIRECTION ( 'NONE',  ( 1.000000000000000000, 0.0000000000000000000, -3.491481338843133355E-15 ) ) ;
#68 = AXIS2_PLACEMENT_3D ( 'NONE', #128, #193, #267 ) ;
#69 = CARTESIAN_POINT ( 'NONE',  ( -0.5599999999999997202, 0.0000000000000000000, 0.09988159656980749590 ) ) ;
#70 = CC_DESIGN_APPROVAL ( #4, ( #251 ) ) ;
#71 = UNCERTAINTY_MEASURE_WITH_UNIT (LENGTH_MEASURE( 1.000000000000000082E-05 ), #20, 'distance_accuracy_value', 'NONE');
#72 = ORIENTED_EDGE ( 'NONE', *, *, #208, .F. ) ;
#73 = EDGE_LOOP ( 'NONE', ( #58 ) ) ;
#74 = CC_DESIGN_APPROVAL ( #51, ( #145 ) ) ;
#75 = PRODUCT_DEFINITION_SHAPE ( 'NONE', 'NONE',  #142 ) ;
#76 = ORIENTED_EDGE ( 'NONE', *, *, #82, .F. ) ;
#77 = APPROVAL ( #254, 'UNSPECIFIED' ) ;
#78 = DIRECTION ( 'NONE',  ( -1.000000000000000000, 0.0000000000000000000, 5.782411586589379332E-15 ) ) ;
#79 = AXIS2_PLACEMENT_3D ( 'NONE', #192, #109, #261 ) ;
#80 = DIRECTION ( 'NONE',  ( -3.491481338843133355E-15, 0.0000000000000000000, -1.000000000000000000 ) ) ;
#81 = DIRECTION ( 'NONE',  ( -1.000000000000000000, 0.0000000000000000000, 3.520136923654238602E-15 ) ) ;
#82 = EDGE_CURVE ( 'NONE', #44, #44, #38, .T. ) ;
#83 = FACE_OUTER_BOUND ( 'NONE', #1, .T. ) ;
#84 = CONICAL_SURFACE ( 'NONE', #233, 1.499999999999995559, 0.2617993877991426355 ) ;
#85 = DIRECTION ( 'NONE',  ( -3.491481338843133355E-15, 0.0000000000000000000, -1.000000000000000000 ) ) ;
#86 = ADVANCED_BREP_SHAPE_REPRESENTATION ( '995884', ( #101, #294, #104 ), #108 ) ;
#87 = APPROVAL_ROLE ( '' ) ;
#88 = FACE_OUTER_BOUND ( 'NONE', #188, .T. ) ;
#89 = CC_DESIGN_DATE_AND_TIME_ASSIGNMENT ( #93, #179, ( #251 ) ) ;
#90 = DIRECTION ( 'NONE',  ( -3.491481338843133355E-15, 0.0000000000000000000, -1.000000000000000000 ) ) ;
#91 = AXIS2_PLACEMENT_3D ( 'NONE', #111, #194, #288 ) ;
#92 = LOCAL_TIME ( 9, 27, 3.000000000000000000, #268 ) ;
#93 = DATE_AND_TIME ( #297, #130 ) ;
#94 = VERTEX_POINT ( 'NONE', #197 ) ;
#95 = FACE_OUTER_BOUND ( 'NONE', #279, .T. ) ;
#96 = CC_DESIGN_PERSON_AND_ORGANIZATION_ASSIGNMENT ( #64, #158, ( #142 ) ) ;
#97 = VERTEX_POINT ( 'NONE', #217 ) ;
#98 = FACE_OUTER_BOUND ( 'NONE', #237, .T. ) ;
#99 = AXIS2_PLACEMENT_3D ( 'NONE', #243, #181, #275 ) ;
#100 = ORIENTED_EDGE ( 'NONE', *, *, #63, .T. ) ;
#101 = MANIFOLD_SOLID_BREP ( 'Corps-Déplacer/Copier1[1]', #225 ) ;
#102 = PERSON_AND_ORGANIZATION_ROLE ( 'design_owner' ) ;
#103 = AXIS2_PLACEMENT_3D ( 'NONE', #150, #2, #153 ) ;
#104 = AXIS2_PLACEMENT_3D ( 'NONE', #65, #298, #253 ) ;
#105 = ORIENTED_EDGE ( 'NONE', *, *, #190, .F. ) ;
#106 = EDGE_LOOP ( 'NONE', ( #286 ) ) ;
#107 = CARTESIAN_POINT ( 'NONE',  ( 1.326762908760390423E-13, 0.0000000000000000000, 38.00000000000000000 ) ) ;
#108 =( GEOMETRIC_REPRESENTATION_CONTEXT ( 3 ) GLOBAL_UNCERTAINTY_ASSIGNED_CONTEXT ( ( #71 ) ) GLOBAL_UNIT_ASSIGNED_CONTEXT ( ( #20, #40, #118 ) ) REPRESENTATION_CONTEXT ( 'NONE', 'WORKASPACE' ) );
#109 = DIRECTION ( 'NONE',  ( -3.491481338843133355E-15, 0.0000000000000000000, -1.000000000000000000 ) ) ;
#110 = ADVANCED_FACE ( 'NONE', ( #83 ), #126, .T. ) ;
#111 = CARTESIAN_POINT ( 'NONE',  ( 3.487347305173343752E-16, 0.0000000000000000000, 0.09988159656980555301 ) ) ;
#112 = FACE_OUTER_BOUND ( 'NONE', #207, .T. ) ;
#113 = CIRCLE ( 'NONE', #50, 0.5600000000000000533 ) ;
#114 = EDGE_CURVE ( 'NONE', #97, #97, #5, .T. ) ;
#115 = DATE_TIME_ROLE ( 'creation_date' ) ;
#116 = PERSON_AND_ORGANIZATION ( #258, #135 ) ;
#117 = PLANE ( 'NONE',  #265 ) ;
#118 =( NAMED_UNIT ( * ) SI_UNIT ( $, .STERADIAN. ) SOLID_ANGLE_UNIT ( ) );
#119 = CC_DESIGN_PERSON_AND_ORGANIZATION_ASSIGNMENT ( #249, #102, ( #149 ) ) ;
#120 = DIRECTION ( 'NONE',  ( -3.491481338843133355E-15, 0.0000000000000000000, -1.000000000000000000 ) ) ;
#121 = FACE_BOUND ( 'NONE', #152, .T. ) ;
#122 = FACE_OUTER_BOUND ( 'NONE', #73, .T. ) ;
#123 = EDGE_CURVE ( 'NONE', #175, #175, #154, .T. ) ;
#124 = ORIENTED_EDGE ( 'NONE', *, *, #168, .T. ) ;
#125 = EDGE_LOOP ( 'NONE', ( #169 ) ) ;
#126 = PLANE ( 'NONE',  #289 ) ;
#127 = FACE_OUTER_BOUND ( 'NONE', #185, .T. ) ;
#128 = CARTESIAN_POINT ( 'NONE',  ( 1.419551869787371072E-31, 0.0000000000000000000, 4.065758146820641628E-17 ) ) ;
#129 = EDGE_CURVE ( 'NONE', #269, #269, #191, .T. ) ;
#130 = LOCAL_TIME ( 9, 27, 3.000000000000000000, #136 ) ;
#131 = ORIENTED_EDGE ( 'NONE', *, *, #114, .T. ) ;
#132 = DIRECTION ( 'NONE',  ( 3.491481338843133355E-15, 0.0000000000000000000, 1.000000000000000000 ) ) ;
#133 = ADVANCED_FACE ( 'NONE', ( #284, #9 ), #167, .T. ) ;
#134 = DIRECTION ( 'NONE',  ( -3.491481338843133355E-15, 0.0000000000000000000, -1.000000000000000000 ) ) ;
#135 = ORGANIZATION ( 'UNSPECIFIED', 'UNSPECIFIED', '' ) ;
#136 = COORDINATED_UNIVERSAL_TIME_OFFSET ( 1, 0, .AHEAD. ) ;
#137 = DIRECTION ( 'NONE',  ( -1.000000000000000000, 0.0000000000000000000, 3.484935554417692655E-15 ) ) ;
#138 = CALENDAR_DATE ( 2021, 17, 12 ) ;
#139 = VERTEX_POINT ( 'NONE', #228 ) ;
#140 = ADVANCED_FACE ( 'NONE', ( #54, #189 ), #290, .T. ) ;
#141 = VERTEX_POINT ( 'NONE', #159 ) ;
#142 = PRODUCT_DEFINITION ( 'UNKNOWN', '', #145, #42 ) ;
#143 = COORDINATED_UNIVERSAL_TIME_OFFSET ( 1, 0, .AHEAD. ) ;
#144 = EDGE_LOOP ( 'NONE', ( #250 ) ) ;
#145 = PRODUCT_DEFINITION_FORMATION_WITH_SPECIFIED_SOURCE ( 'ANY', '', #149, .NOT_KNOWN. ) ;
#146 = DATE_AND_TIME ( #47, #209 ) ;
#147 = APPLICATION_PROTOCOL_DEFINITION ( 'international standard', 'config_control_design', 1994, #35 ) ;
#148 = EDGE_CURVE ( 'NONE', #139, #139, #49, .T. ) ;
#149 = PRODUCT ( '995884', '995884', '', ( #164 ) ) ;
#150 = CARTESIAN_POINT ( 'NONE',  ( 1.473371913652455148E-15, 0.0000000000000000000, 0.4219904878943565585 ) ) ;
#151 = DIRECTION ( 'NONE',  ( -3.491481338843133355E-15, 0.0000000000000000000, -1.000000000000000000 ) ) ;
#152 = EDGE_LOOP ( 'NONE', ( #165 ) ) ;
#153 = DIRECTION ( 'NONE',  ( -1.000000000000000000, 0.0000000000000000000, 3.520136923654238602E-15 ) ) ;
#154 = CIRCLE ( 'NONE', #79, 1.499999999999995559 ) ;
#155 = CIRCLE ( 'NONE', #293, 1.499999999999995337 ) ;
#156 = DIRECTION ( 'NONE',  ( -1.000000000000000000, 0.0000000000000000000, 3.491481338843133750E-15 ) ) ;
#157 = DIRECTION ( 'NONE',  ( -1.000000000000000000, 0.0000000000000000000, 3.491481338843133355E-15 ) ) ;
#158 = PERSON_AND_ORGANIZATION_ROLE ( 'creator' ) ;
#159 = CARTESIAN_POINT ( 'NONE',  ( -1.199999999999862732, 0.0000000000000000000, 38.00000000000000711 ) ) ;
#160 = VERTEX_POINT ( 'NONE', #247 ) ;
#161 = AXIS2_PLACEMENT_3D ( 'NONE', #166, #257, #31 ) ;
#162 = ORIENTED_EDGE ( 'NONE', *, *, #148, .T. ) ;
#163 = TOROIDAL_SURFACE ( 'NONE', #227, 2.384999999999999343, 2.000000000000000000 ) ;
#164 = MECHANICAL_CONTEXT ( 'NONE', #53, 'mechanical' ) ;
#165 = ORIENTED_EDGE ( 'NONE', *, *, #148, .F. ) ;
#166 = CARTESIAN_POINT ( 'NONE',  ( 0.0000000000000000000, 0.0000000000000000000, 0.0000000000000000000 ) ) ;
#167 = CYLINDRICAL_SURFACE ( 'NONE', #161, 1.499999999999995337 ) ;
#168 = EDGE_CURVE ( 'NONE', #224, #224, #278, .T. ) ;
#169 = ORIENTED_EDGE ( 'NONE', *, *, #123, .F. ) ;
#170 = EDGE_LOOP ( 'NONE', ( #162 ) ) ;
#171 = ADVANCED_FACE ( 'NONE', ( #127 ), #211, .F. ) ;
#172 = DIRECTION ( 'NONE',  ( 1.000000000000000000, 0.0000000000000000000, -3.491481338843133355E-15 ) ) ;
#173 = LOCAL_TIME ( 9, 27, 3.000000000000000000, #232 ) ;
#174 = FACE_OUTER_BOUND ( 'NONE', #48, .T. ) ;
#175 = VERTEX_POINT ( 'NONE', #240 ) ;
#176 = SECURITY_CLASSIFICATION_LEVEL ( 'unclassified' ) ;
#177 = FACE_OUTER_BOUND ( 'NONE', #144, .T. ) ;
#178 = AXIS2_PLACEMENT_3D ( 'NONE', #216, #7, #81 ) ;
#179 = DATE_TIME_ROLE ( 'classification_date' ) ;
#180 = DIRECTION ( 'NONE',  ( 3.491481338843133355E-15, 0.0000000000000000000, 1.000000000000000000 ) ) ;
#181 = DIRECTION ( 'NONE',  ( 3.491481338843133355E-15, 0.0000000000000000000, 1.000000000000000000 ) ) ;
#182 = DIRECTION ( 'NONE',  ( -3.491481338843133355E-15, 0.0000000000000000000, -1.000000000000000000 ) ) ;
#183 = AXIS2_PLACEMENT_3D ( 'NONE', #292, #85, #229 ) ;
#184 = ORIENTED_EDGE ( 'NONE', *, *, #129, .T. ) ;
#185 = EDGE_LOOP ( 'NONE', ( #124 ) ) ;
#186 = ADVANCED_FACE ( 'NONE', ( #174, #112 ), #195, .T. ) ;
#187 = PERSON_AND_ORGANIZATION ( #258, #135 ) ;
#188 = EDGE_LOOP ( 'NONE', ( #56 ) ) ;
#189 = FACE_BOUND ( 'NONE', #24, .T. ) ;
#190 = EDGE_CURVE ( 'NONE', #160, #160, #113, .T. ) ;
#191 = CIRCLE ( 'NONE', #178, 0.3849999999999996203 ) ;
#192 = CARTESIAN_POINT ( 'NONE',  ( 2.941412819822795266E-14, 0.0000000000000000000, 8.424541145614147908 ) ) ;
#193 = DIRECTION ( 'NONE',  ( 3.491481338843133355E-15, 0.0000000000000000000, 1.000000000000000000 ) ) ;
#194 = DIRECTION ( 'NONE',  ( -3.491481338843133355E-15, 0.0000000000000000000, -1.000000000000000000 ) ) ;
#195 = CYLINDRICAL_SURFACE ( 'NONE', #183, 0.3849999999999996203 ) ;
#196 = AXIS2_PLACEMENT_3D ( 'NONE', #236, #151, #235 ) ;
#197 = CARTESIAN_POINT ( 'NONE',  ( -0.3849999999999981215, 0.0000000000000000000, 0.4219904878943578908 ) ) ;
#198 = PERSON_AND_ORGANIZATION_ROLE ( 'design_supplier' ) ;
#199 = ADVANCED_FACE ( 'NONE', ( #62, #219 ), #37, .T. ) ;
#200 = DIRECTION ( 'NONE',  ( -3.491481338843133355E-15, 0.0000000000000000000, -1.000000000000000000 ) ) ;
#201 = APPLICATION_PROTOCOL_DEFINITION ( 'international standard', 'config_control_design', 1994, #53 ) ;
#202 = PLANE ( 'NONE',  #230 ) ;
#203 = FACE_BOUND ( 'NONE', #3, .T. ) ;
#204 = DIRECTION ( 'NONE',  ( -1.000000000000000000, 0.0000000000000000000, 3.491481338843133355E-15 ) ) ;
#205 = CC_DESIGN_PERSON_AND_ORGANIZATION_ASSIGNMENT ( #271, #245, ( #251 ) ) ;
#206 = AXIS2_PLACEMENT_3D ( 'NONE', #33, #264, #34 ) ;
#207 = EDGE_LOOP ( 'NONE', ( #131 ) ) ;
#208 = EDGE_CURVE ( 'NONE', #45, #45, #155, .T. ) ;
#209 = LOCAL_TIME ( 9, 27, 3.000000000000000000, #143 ) ;
#210 = EDGE_LOOP ( 'NONE', ( #287 ) ) ;
#211 = PLANE ( 'NONE',  #68 ) ;
#212 = AXIS2_PLACEMENT_3D ( 'NONE', #285, #80, #78 ) ;
#213 = DIRECTION ( 'NONE',  ( -1.000000000000000000, 0.0000000000000000000, 5.782411586589379332E-15 ) ) ;
#214 = APPROVAL_PERSON_ORGANIZATION ( #187, #77, #52 ) ;
#215 = ORIENTED_EDGE ( 'NONE', *, *, #26, .F. ) ;
#216 = CARTESIAN_POINT ( 'NONE',  ( 1.473371913652455148E-15, 0.0000000000000000000, 0.4219904878943565585 ) ) ;
#217 = CARTESIAN_POINT ( 'NONE',  ( -0.3849999999999856315, 0.0000000000000000000, 3.999999499999971064 ) ) ;
#218 = CONICAL_SURFACE ( 'NONE', #19, 0.3849999999999996203, 0.5235987755983035896 ) ;
#219 = FACE_OUTER_BOUND ( 'NONE', #277, .T. ) ;
#220 = PERSON_AND_ORGANIZATION_ROLE ( 'creator' ) ;
#221 = FACE_OUTER_BOUND ( 'NONE', #106, .T. ) ;
#222 = DIRECTION ( 'NONE',  ( -3.491481338843133355E-15, 0.0000000000000000000, -1.000000000000000000 ) ) ;
#223 = PERSON_AND_ORGANIZATION ( #258, #135 ) ;
#224 = VERTEX_POINT ( 'NONE', #36 ) ;
#225 = CLOSED_SHELL ( 'NONE', ( #283, #186, #241, #300, #133, #140, #226 ) ) ;
#226 = ADVANCED_FACE ( 'NONE', ( #122 ), #117, .F. ) ;
#227 = AXIS2_PLACEMENT_3D ( 'NONE', #66, #182, #157 ) ;
#228 = CARTESIAN_POINT ( 'NONE',  ( -0.4531483474218445107, 0.0000000000000000000, 4.517637590205000109 ) ) ;
#229 = DIRECTION ( 'NONE',  ( -1.000000000000000000, 0.0000000000000000000, 3.491481338843132961E-15 ) ) ;
#230 = AXIS2_PLACEMENT_3D ( 'NONE', #299, #180, #67 ) ;
#231 = APPROVAL_ROLE ( '' ) ;
#232 = COORDINATED_UNIVERSAL_TIME_OFFSET ( 1, 0, .AHEAD. ) ;
#233 = AXIS2_PLACEMENT_3D ( 'NONE', #276, #18, #14 ) ;
#234 = CARTESIAN_POINT ( 'NONE',  ( 1.577324734185701423E-14, 0.0000000000000000000, 4.517637590204998332 ) ) ;
#235 = DIRECTION ( 'NONE',  ( -1.000000000000000000, 0.0000000000000000000, 3.491481338843133355E-15 ) ) ;
#236 = CARTESIAN_POINT ( 'NONE',  ( 2.839103739574742144E-31, 0.0000000000000000000, 8.131516293641283255E-17 ) ) ;
#237 = EDGE_LOOP ( 'NONE', ( #105 ) ) ;
#238 = CC_DESIGN_PERSON_AND_ORGANIZATION_ASSIGNMENT ( #116, #198, ( #145 ) ) ;
#239 = CARTESIAN_POINT ( 'NONE',  ( 1.473371913652455148E-15, -5.941857191471165035E-17, 0.4219904878943565585 ) ) ;
#240 = CARTESIAN_POINT ( 'NONE',  ( -1.499999999999966027, 0.0000000000000000000, 8.424541145614153237 ) ) ;
#241 = ADVANCED_FACE ( 'NONE', ( #177, #274 ), #163, .F. ) ;
#242 = APPROVAL_DATE_TIME ( #61, #51 ) ;
#243 = CARTESIAN_POINT ( 'NONE',  ( 3.487347305173343752E-16, 0.0000000000000000000, 0.09988159656980555301 ) ) ;
#244 = CARTESIAN_POINT ( 'NONE',  ( 1.316288464743861212E-13, 0.0000000000000000000, 37.69999999999999574 ) ) ;
#245 = PERSON_AND_ORGANIZATION_ROLE ( 'classification_officer' ) ;
#246 = FACE_BOUND ( 'NONE', #210, .T. ) ;
#247 = CARTESIAN_POINT ( 'NONE',  ( -0.5599999999999996092, 0.0000000000000000000, 0.1188815965698075128 ) ) ;
#248 = CLOSED_SHELL ( 'NONE', ( #171, #302, #199, #256, #110 ) ) ;
#249 = PERSON_AND_ORGANIZATION ( #258, #135 ) ;
#250 = ORIENTED_EDGE ( 'NONE', *, *, #114, .F. ) ;
#251 = SECURITY_CLASSIFICATION ( '', '', #176 ) ;
#252 = PERSON_AND_ORGANIZATION ( #258, #135 ) ;
#253 = DIRECTION ( 'NONE',  ( 1.000000000000000000, 0.0000000000000000000, 0.0000000000000000000 ) ) ;
#254 = APPROVAL_STATUS ( 'not_yet_approved' ) ;
#255 = EDGE_LOOP ( 'NONE', ( #30 ) ) ;
#256 = ADVANCED_FACE ( 'NONE', ( #98, #246 ), #218, .T. ) ;
#257 = DIRECTION ( 'NONE',  ( -3.491481338843133355E-15, 0.0000000000000000000, -1.000000000000000000 ) ) ;
#258 = PERSON ( 'UNSPECIFIED', 'UNSPECIFIED', 'UNSPECIFIED', ('UNSPECIFIED'), ('UNSPECIFIED'), ('UNSPECIFIED') ) ;
#259 = CONICAL_SURFACE ( 'NONE', #99, 0.5600000000000000533, 1.047197551196596743 ) ;
#260 = DIRECTION ( 'NONE',  ( -3.491481338843133355E-15, 0.0000000000000000000, -1.000000000000000000 ) ) ;
#261 = DIRECTION ( 'NONE',  ( -1.000000000000000000, 0.0000000000000000000, 3.469446951953624444E-15 ) ) ;
#262 = DIRECTION ( 'NONE',  ( -3.491481338843133355E-15, 0.0000000000000000000, -1.000000000000000000 ) ) ;
#263 = CIRCLE ( 'NONE', #282, 1.199999999999995293 ) ;
#264 = DIRECTION ( 'NONE',  ( -3.491481338843133355E-15, 0.0000000000000000000, -1.000000000000000000 ) ) ;
#265 = AXIS2_PLACEMENT_3D ( 'NONE', #296, #200, #204 ) ;
#266 = DATE_AND_TIME ( #138, #273 ) ;
#267 = DIRECTION ( 'NONE',  ( 1.000000000000000000, 0.0000000000000000000, -3.491481338843133355E-15 ) ) ;
#268 = COORDINATED_UNIVERSAL_TIME_OFFSET ( 1, 0, .AHEAD. ) ;
#269 = VERTEX_POINT ( 'NONE', #301 ) ;
#270 = CARTESIAN_POINT ( 'NONE',  ( 4.150728759553539267E-16, 0.0000000000000000000, 0.1188815965698055560 ) ) ;
#271 = PERSON_AND_ORGANIZATION ( #258, #135 ) ;
#272 = CIRCLE ( 'NONE', #103, 0.3849999999999996203 ) ;
#273 = LOCAL_TIME ( 9, 27, 3.000000000000000000, #43 ) ;
#274 = FACE_OUTER_BOUND ( 'NONE', #170, .T. ) ;
#275 = DIRECTION ( 'NONE',  ( 1.000000000000000000, 0.0000000000000000000, -3.484935554417692655E-15 ) ) ;
#276 = CARTESIAN_POINT ( 'NONE',  ( 2.941412819822795266E-14, 0.0000000000000000000, 8.424541145614147908 ) ) ;
#277 = EDGE_LOOP ( 'NONE', ( #8 ) ) ;
#278 = CIRCLE ( 'NONE', #196, 0.3870000000000001217 ) ;
#279 = EDGE_LOOP ( 'NONE', ( #184 ) ) ;
#280 = APPROVAL_DATE_TIME ( #146, #4 ) ;
#281 = ORIENTED_EDGE ( 'NONE', *, *, #168, .F. ) ;
#282 = AXIS2_PLACEMENT_3D ( 'NONE', #107, #262, #213 ) ;
#283 = ADVANCED_FACE ( 'NONE', ( #95 ), #202, .F. ) ;
#284 = FACE_OUTER_BOUND ( 'NONE', #125, .T. ) ;
#285 = CARTESIAN_POINT ( 'NONE',  ( 1.326762908760390423E-13, 0.0000000000000000000, 38.00000000000000000 ) ) ;
#286 = ORIENTED_EDGE ( 'NONE', *, *, #82, .T. ) ;
#287 = ORIENTED_EDGE ( 'NONE', *, *, #26, .T. ) ;
#288 = DIRECTION ( 'NONE',  ( -1.000000000000000000, 0.0000000000000000000, 3.484935554417692655E-15 ) ) ;
#289 = AXIS2_PLACEMENT_3D ( 'NONE', #239, #132, #172 ) ;
#290 = CONICAL_SURFACE ( 'NONE', #212, 1.199999999999995293, 0.7853981633974453924 ) ;
#291 = CC_DESIGN_DATE_AND_TIME_ASSIGNMENT ( #266, #115, ( #142 ) ) ;
#292 = CARTESIAN_POINT ( 'NONE',  ( 0.0000000000000000000, 0.0000000000000000000, 0.0000000000000000000 ) ) ;
#293 = AXIS2_PLACEMENT_3D ( 'NONE', #244, #90, #41 ) ;
#294 = MANIFOLD_SOLID_BREP ( 'Corps-Déplacer/Copier1[2]', #248 ) ;
#295 = APPROVAL_STATUS ( 'not_yet_approved' ) ;
#296 = CARTESIAN_POINT ( 'NONE',  ( 1.326762908760390423E-13, 0.0000000000000000000, 38.00000000000000000 ) ) ;
#297 = CALENDAR_DATE ( 2021, 17, 12 ) ;
#298 = DIRECTION ( 'NONE',  ( 0.0000000000000000000, 0.0000000000000000000, 1.000000000000000000 ) ) ;
#299 = CARTESIAN_POINT ( 'NONE',  ( 1.473371913652455148E-15, -5.941857191471165035E-17, 0.4219904878943565585 ) ) ;
#300 = ADVANCED_FACE ( 'NONE', ( #121, #88 ), #84, .T. ) ;
#301 = CARTESIAN_POINT ( 'NONE',  ( -0.3849999999999981215, 0.0000000000000000000, 0.4219904878943578908 ) ) ;
#302 = ADVANCED_FACE ( 'NONE', ( #203, #221 ), #259, .T. ) ;
#303 = AXIS2_PLACEMENT_3D ( 'NONE', #21, #134, #156 ) ;
ENDSEC;
END-ISO-10303-21;
