ISO-10303-21;
HEADER;
FILE_DESCRIPTION (( 'STEP AP203' ),
    '1' );
FILE_NAME ('995883.step',
    '2021-12-17T08:27:03',
    ( '' ),
    ( '' ),
    'SwSTEP 2.0',
    'SolidWorks 2019',
    '' );
FILE_SCHEMA (( 'CONFIG_CONTROL_DESIGN' ));
ENDSEC;

DATA;
#1 = AXIS2_PLACEMENT_3D ( 'NONE', #43, #152, #243 ) ;
#2 = DIRECTION ( 'NONE',  ( -1.000000000000000000, 0.0000000000000000000, 3.456876491982772025E-15 ) ) ;
#3 = MANIFOLD_SOLID_BREP ( 'Corps-Déplacer/Copier1[1]', #60 ) ;
#4 = MECHANICAL_CONTEXT ( 'NONE', #244, 'mechanical' ) ;
#5 = DATE_AND_TIME ( #38, #277 ) ;
#6 = EDGE_LOOP ( 'NONE', ( #232 ) ) ;
#7 = APPROVAL_STATUS ( 'not_yet_approved' ) ;
#8 = ORIENTED_EDGE ( 'NONE', *, *, #48, .T. ) ;
#9 = CIRCLE ( 'NONE', #25, 0.4131483474218591856 ) ;
#10 = ADVANCED_FACE ( 'NONE', ( #285, #165 ), #57, .T. ) ;
#11 = APPROVAL_DATE_TIME ( #231, #254 ) ;
#12 = PERSON ( 'UNSPECIFIED', 'UNSPECIFIED', 'UNSPECIFIED', ('UNSPECIFIED'), ('UNSPECIFIED'), ('UNSPECIFIED') ) ;
#13 = ORIENTED_EDGE ( 'NONE', *, *, #222, .T. ) ;
#14 = COORDINATED_UNIVERSAL_TIME_OFFSET ( 1, 0, .AHEAD. ) ;
#15 = DIRECTION ( 'NONE',  ( -3.491481338843133355E-15, 0.0000000000000000000, -1.000000000000000000 ) ) ;
#16 = ADVANCED_FACE ( 'NONE', ( #236, #33 ), #264, .T. ) ;
#17 = CARTESIAN_POINT ( 'NONE',  ( 3.496314902429701956E-16, 0.0000000000000000000, 0.1001384387633064144 ) ) ;
#18 = DIRECTION ( 'NONE',  ( -1.000000000000000000, 0.0000000000000000000, 3.456876491982772025E-15 ) ) ;
#19 = DIRECTION ( 'NONE',  ( 3.491481338843133355E-15, 0.0000000000000000000, 1.000000000000000000 ) ) ;
#20 = DESIGN_CONTEXT ( 'detailed design', #163, 'design' ) ;
#21 = FACE_BOUND ( 'NONE', #233, .T. ) ;
#22 = CARTESIAN_POINT ( 'NONE',  ( -0.3460000000000000853, 0.0000000000000000000, 1.235157597551862059E-15 ) ) ;
#23 = UNCERTAINTY_MEASURE_WITH_UNIT (LENGTH_MEASURE( 1.000000000000000082E-05 ), #109, 'distance_accuracy_value', 'NONE');
#24 =( NAMED_UNIT ( * ) PLANE_ANGLE_UNIT ( ) SI_UNIT ( $, .RADIAN. ) );
#25 = AXIS2_PLACEMENT_3D ( 'NONE', #206, #272, #159 ) ;
#26 = CARTESIAN_POINT ( 'NONE',  ( 0.0000000000000000000, 0.0000000000000000000, 0.0000000000000000000 ) ) ;
#27 = CARTESIAN_POINT ( 'NONE',  ( -0.3449999999999983635, 0.0000000000000000000, 0.3512858058607924439 ) ) ;
#28 = DIRECTION ( 'NONE',  ( -3.491481338843133355E-15, 0.0000000000000000000, -1.000000000000000000 ) ) ;
#29 = AXIS2_PLACEMENT_3D ( 'NONE', #175, #271, #155 ) ;
#30 = SHAPE_DEFINITION_REPRESENTATION ( #53, #208 ) ;
#31 = PERSON_AND_ORGANIZATION_ROLE ( 'design_owner' ) ;
#32 = CC_DESIGN_DATE_AND_TIME_ASSIGNMENT ( #142, #77, ( #34 ) ) ;
#33 = FACE_OUTER_BOUND ( 'NONE', #169, .T. ) ;
#34 = SECURITY_CLASSIFICATION ( '', '', #261 ) ;
#35 = AXIS2_PLACEMENT_3D ( 'NONE', #212, #118, #296 ) ;
#36 = CALENDAR_DATE ( 2021, 17, 12 ) ;
#37 = EDGE_LOOP ( 'NONE', ( #13 ) ) ;
#38 = CALENDAR_DATE ( 2021, 17, 12 ) ;
#39 = ORIENTED_EDGE ( 'NONE', *, *, #48, .F. ) ;
#40 = DIRECTION ( 'NONE',  ( -3.491481338843133355E-15, 0.0000000000000000000, -1.000000000000000000 ) ) ;
#41 = CARTESIAN_POINT ( 'NONE',  ( 1.316288464743861212E-13, 0.0000000000000000000, 37.69999999999999574 ) ) ;
#42 = CARTESIAN_POINT ( 'NONE',  ( 1.226507835763424362E-15, 0.0000000000000000000, 0.3512858058607912226 ) ) ;
#43 = CARTESIAN_POINT ( 'NONE',  ( 1.326762908760390423E-13, 0.0000000000000000000, 38.00000000000000000 ) ) ;
#44 = ADVANCED_FACE ( 'NONE', ( #61, #21 ), #238, .T. ) ;
#45 = CARTESIAN_POINT ( 'NONE',  ( 0.0000000000000000000, 0.0000000000000000000, 0.0000000000000000000 ) ) ;
#46 = DIRECTION ( 'NONE',  ( -1.000000000000000000, 0.0000000000000000000, 3.491481338843133355E-15 ) ) ;
#47 = CARTESIAN_POINT ( 'NONE',  ( -0.4899999999999996581, 0.0000000000000000000, 0.08313843876330812011 ) ) ;
#48 = EDGE_CURVE ( 'NONE', #133, #133, #90, .T. ) ;
#49 = AXIS2_PLACEMENT_3D ( 'NONE', #148, #242, #293 ) ;
#50 = DIRECTION ( 'NONE',  ( -1.000000000000000000, 0.0000000000000000000, 3.771137991253932616E-15 ) ) ;
#51 = CARTESIAN_POINT ( 'NONE',  ( 1.187103603861350324E-14, 0.0000000000000000000, 3.399999852941173017 ) ) ;
#52 = ADVANCED_FACE ( 'NONE', ( #223 ), #108, .T. ) ;
#53 = PRODUCT_DEFINITION_SHAPE ( 'NONE', 'NONE',  #298 ) ;
#54 = PERSON_AND_ORGANIZATION ( #12, #204 ) ;
#55 = ORIENTED_EDGE ( 'NONE', *, *, #76, .F. ) ;
#56 = COORDINATED_UNIVERSAL_TIME_OFFSET ( 1, 0, .AHEAD. ) ;
#57 = CYLINDRICAL_SURFACE ( 'NONE', #224, 0.3449999999999995848 ) ;
#58 = APPROVAL_ROLE ( '' ) ;
#59 = EDGE_LOOP ( 'NONE', ( #183 ) ) ;
#60 = CLOSED_SHELL ( 'NONE', ( #215, #10, #203, #16, #121, #44, #275 ) ) ;
#61 = FACE_OUTER_BOUND ( 'NONE', #59, .T. ) ;
#62 = LOCAL_TIME ( 9, 27, 3.000000000000000000, #122 ) ;
#63 = CIRCLE ( 'NONE', #1, 1.199999999999995293 ) ;
#64 = DIRECTION ( 'NONE',  ( 1.000000000000000000, 0.0000000000000000000, -3.484935554417693049E-15 ) ) ;
#65 = CARTESIAN_POINT ( 'NONE',  ( 2.784045605721935790E-14, 0.0000000000000000000, 7.973823530858110686 ) ) ;
#66 = CYLINDRICAL_SURFACE ( 'NONE', #186, 0.4899999999999999911 ) ;
#67 = CARTESIAN_POINT ( 'NONE',  ( 9.463679131915806782E-32, 0.0000000000000000000, 2.710505431213761085E-17 ) ) ;
#68 = CIRCLE ( 'NONE', #80, 0.3449999999999995848 ) ;
#69 = EDGE_CURVE ( 'NONE', #207, #207, #218, .T. ) ;
#70 = CARTESIAN_POINT ( 'NONE',  ( -1.199999999999862732, 0.0000000000000000000, 38.00000000000000711 ) ) ;
#71 = LOCAL_TIME ( 9, 27, 3.000000000000000000, #72 ) ;
#72 = COORDINATED_UNIVERSAL_TIME_OFFSET ( 1, 0, .AHEAD. ) ;
#73 = PRODUCT ( '995883', '995883', '', ( #4 ) ) ;
#74 = ORIENTED_EDGE ( 'NONE', *, *, #69, .F. ) ;
#75 = AXIS2_PLACEMENT_3D ( 'NONE', #228, #278, #256 ) ;
#76 = EDGE_CURVE ( 'NONE', #137, #137, #217, .T. ) ;
#77 = DATE_TIME_ROLE ( 'classification_date' ) ;
#78 = EDGE_LOOP ( 'NONE', ( #239 ) ) ;
#79 = DIRECTION ( 'NONE',  ( -3.491481338843133355E-15, 0.0000000000000000000, -1.000000000000000000 ) ) ;
#80 = AXIS2_PLACEMENT_3D ( 'NONE', #221, #125, #267 ) ;
#81 = CC_DESIGN_PERSON_AND_ORGANIZATION_ASSIGNMENT ( #289, #31, ( #73 ) ) ;
#82 = ORIENTED_EDGE ( 'NONE', *, *, #93, .T. ) ;
#83 = DIRECTION ( 'NONE',  ( -1.000000000000000000, 0.0000000000000000000, 3.491481338843133750E-15 ) ) ;
#84 = FACE_OUTER_BOUND ( 'NONE', #102, .T. ) ;
#85 = ADVANCED_FACE ( 'NONE', ( #294, #84 ), #66, .T. ) ;
#86 = CARTESIAN_POINT ( 'NONE',  ( 4.731839565957903391E-32, 0.0000000000000000000, 1.355252715606880543E-17 ) ) ;
#87 = FACE_OUTER_BOUND ( 'NONE', #282, .T. ) ;
#88 = CC_DESIGN_APPROVAL ( #178, ( #34 ) ) ;
#89 = DIRECTION ( 'NONE',  ( -3.491481338843133355E-15, 0.0000000000000000000, -1.000000000000000000 ) ) ;
#90 = CIRCLE ( 'NONE', #129, 0.4899999999999999911 ) ;
#91 = AXIS2_PLACEMENT_3D ( 'NONE', #42, #200, #18 ) ;
#92 = CARTESIAN_POINT ( 'NONE',  ( -0.4131483474218455298, 0.0000000000000000000, 3.917637943146203394 ) ) ;
#93 = EDGE_CURVE ( 'NONE', #132, #132, #63, .T. ) ;
#94 = DIRECTION ( 'NONE',  ( -1.000000000000000000, 0.0000000000000000000, 3.491481338843133355E-15 ) ) ;
#95 = PERSON_AND_ORGANIZATION_ROLE ( 'classification_officer' ) ;
#96 = ADVANCED_FACE ( 'NONE', ( #154 ), #107, .F. ) ;
#97 = EDGE_LOOP ( 'NONE', ( #210 ) ) ;
#98 = APPROVAL_DATE_TIME ( #237, #241 ) ;
#99 = AXIS2_PLACEMENT_3D ( 'NONE', #51, #28, #50 ) ;
#100 = ORIENTED_EDGE ( 'NONE', *, *, #188, .F. ) ;
#101 = DATE_AND_TIME ( #235, #263 ) ;
#102 = EDGE_LOOP ( 'NONE', ( #8 ) ) ;
#103 = CC_DESIGN_APPROVAL ( #241, ( #298 ) ) ;
#104 = DIRECTION ( 'NONE',  ( -1.000000000000000000, 0.0000000000000000000, 3.484935554417693049E-15 ) ) ;
#105 = CARTESIAN_POINT ( 'NONE',  ( 2.902763074826369542E-16, 0.0000000000000000000, 0.08313843876330641314 ) ) ;
#106 = PLANE ( 'NONE',  #75 ) ;
#107 = PLANE ( 'NONE',  #119 ) ;
#108 = PLANE ( 'NONE',  #150 ) ;
#109 =( LENGTH_UNIT ( ) NAMED_UNIT ( * ) SI_UNIT ( .MILLI., .METRE. ) );
#110 = CLOSED_SHELL ( 'NONE', ( #96, #151, #85, #295, #52 ) ) ;
#111 = CARTESIAN_POINT ( 'NONE',  ( 1.226507835763424362E-15, 0.0000000000000000000, 0.3512858058607912226 ) ) ;
#112 = PLANE ( 'NONE',  #219 ) ;
#113 = VERTEX_POINT ( 'NONE', #92 ) ;
#114 = EDGE_CURVE ( 'NONE', #230, #230, #156, .T. ) ;
#115 = DIRECTION ( 'NONE',  ( 0.0000000000000000000, 0.0000000000000000000, 1.000000000000000000 ) ) ;
#116 = ORIENTED_EDGE ( 'NONE', *, *, #145, .T. ) ;
#117 = APPROVAL_ROLE ( '' ) ;
#118 = DIRECTION ( 'NONE',  ( 3.491481338843133355E-15, 0.0000000000000000000, 1.000000000000000000 ) ) ;
#119 = AXIS2_PLACEMENT_3D ( 'NONE', #86, #19, #127 ) ;
#120 = ORIENTED_EDGE ( 'NONE', *, *, #281, .T. ) ;
#121 = ADVANCED_FACE ( 'NONE', ( #297, #198 ), #171, .T. ) ;
#122 = COORDINATED_UNIVERSAL_TIME_OFFSET ( 1, 0, .AHEAD. ) ;
#123 = EDGE_LOOP ( 'NONE', ( #120 ) ) ;
#124 = CARTESIAN_POINT ( 'NONE',  ( 1.326762908760390423E-13, 0.0000000000000000000, 38.00000000000000000 ) ) ;
#125 = DIRECTION ( 'NONE',  ( -3.491481338843133355E-15, 0.0000000000000000000, -1.000000000000000000 ) ) ;
#126 = AXIS2_PLACEMENT_3D ( 'NONE', #225, #170, #64 ) ;
#127 = DIRECTION ( 'NONE',  ( 1.000000000000000000, 0.0000000000000000000, -3.491481338843133355E-15 ) ) ;
#128 = DIRECTION ( 'NONE',  ( -3.491481338843133355E-15, 0.0000000000000000000, -1.000000000000000000 ) ) ;
#129 = AXIS2_PLACEMENT_3D ( 'NONE', #17, #128, #104 ) ;
#130 = DIRECTION ( 'NONE',  ( -1.000000000000000000, 0.0000000000000000000, 4.625929269271500311E-15 ) ) ;
#131 = PRODUCT_RELATED_PRODUCT_CATEGORY ( 'detail', '', ( #73 ) ) ;
#132 = VERTEX_POINT ( 'NONE', #70 ) ;
#133 = VERTEX_POINT ( 'NONE', #252 ) ;
#134 = CARTESIAN_POINT ( 'NONE',  ( -0.3449999999999983635, 0.0000000000000000000, 0.3512858058607924439 ) ) ;
#135 = CIRCLE ( 'NONE', #91, 0.3449999999999995848 ) ;
#136 = FACE_OUTER_BOUND ( 'NONE', #259, .T. ) ;
#137 = VERTEX_POINT ( 'NONE', #202 ) ;
#138 = PERSON_AND_ORGANIZATION ( #12, #204 ) ;
#139 = ORIENTED_EDGE ( 'NONE', *, *, #246, .F. ) ;
#140 = AXIS2_PLACEMENT_3D ( 'NONE', #65, #149, #197 ) ;
#141 = CALENDAR_DATE ( 2021, 17, 12 ) ;
#142 = DATE_AND_TIME ( #36, #62 ) ;
#143 = CARTESIAN_POINT ( 'NONE',  ( 0.0000000000000000000, 0.0000000000000000000, 0.0000000000000000000 ) ) ;
#144 = DATE_TIME_ROLE ( 'creation_date' ) ;
#145 = EDGE_CURVE ( 'NONE', #226, #226, #68, .T. ) ;
#146 = ORIENTED_EDGE ( 'NONE', *, *, #114, .T. ) ;
#147 = EDGE_LOOP ( 'NONE', ( #166 ) ) ;
#148 = CARTESIAN_POINT ( 'NONE',  ( 1.187103603861350482E-14, 0.0000000000000000000, 3.399999852941173462 ) ) ;
#149 = DIRECTION ( 'NONE',  ( -3.491481338843133355E-15, 0.0000000000000000000, -1.000000000000000000 ) ) ;
#150 = AXIS2_PLACEMENT_3D ( 'NONE', #249, #299, #173 ) ;
#151 = ADVANCED_FACE ( 'NONE', ( #196, #268 ), #270, .T. ) ;
#152 = DIRECTION ( 'NONE',  ( -3.491481338843133355E-15, 0.0000000000000000000, -1.000000000000000000 ) ) ;
#153 = TOROIDAL_SURFACE ( 'NONE', #49, 2.344999999999999751, 2.000000000000000000 ) ;
#154 = FACE_OUTER_BOUND ( 'NONE', #123, .T. ) ;
#155 = DIRECTION ( 'NONE',  ( -1.000000000000000000, 0.0000000000000000000, 3.491481338843133355E-15 ) ) ;
#156 = CIRCLE ( 'NONE', #168, 1.499999999999995337 ) ;
#157 = CARTESIAN_POINT ( 'NONE',  ( 1.326762908760390423E-13, 0.0000000000000000000, 38.00000000000000000 ) ) ;
#158 =( NAMED_UNIT ( * ) SI_UNIT ( $, .STERADIAN. ) SOLID_ANGLE_UNIT ( ) );
#159 = DIRECTION ( 'NONE',  ( -1.000000000000000000, 0.0000000000000000000, 4.198790789801970268E-15 ) ) ;
#160 = DIRECTION ( 'NONE',  ( -3.491481338843133355E-15, 0.0000000000000000000, -1.000000000000000000 ) ) ;
#161 = PERSON_AND_ORGANIZATION_ROLE ( 'creator' ) ;
#162 = CC_DESIGN_PERSON_AND_ORGANIZATION_ASSIGNMENT ( #54, #192, ( #177 ) ) ;
#163 = APPLICATION_CONTEXT ( 'configuration controlled 3d designs of mechanical parts and assemblies' ) ;
#164 = EDGE_LOOP ( 'NONE', ( #146 ) ) ;
#165 = FACE_OUTER_BOUND ( 'NONE', #97, .T. ) ;
#166 = ORIENTED_EDGE ( 'NONE', *, *, #188, .T. ) ;
#167 = EDGE_LOOP ( 'NONE', ( #116 ) ) ;
#168 = AXIS2_PLACEMENT_3D ( 'NONE', #41, #199, #130 ) ;
#169 = EDGE_LOOP ( 'NONE', ( #288 ) ) ;
#170 = DIRECTION ( 'NONE',  ( 3.491481338843133355E-15, 0.0000000000000000000, 1.000000000000000000 ) ) ;
#171 = CYLINDRICAL_SURFACE ( 'NONE', #29, 1.499999999999995337 ) ;
#172 = AXIS2_PLACEMENT_3D ( 'NONE', #105, #220, #216 ) ;
#173 = DIRECTION ( 'NONE',  ( 1.000000000000000000, 0.0000000000000000000, -3.491481338843133355E-15 ) ) ;
#174 = AXIS2_PLACEMENT_3D ( 'NONE', #67, #89, #46 ) ;
#175 = CARTESIAN_POINT ( 'NONE',  ( 0.0000000000000000000, 0.0000000000000000000, 0.0000000000000000000 ) ) ;
#176 = FACE_OUTER_BOUND ( 'NONE', #37, .T. ) ;
#177 = PRODUCT_DEFINITION_FORMATION_WITH_SPECIFIED_SOURCE ( 'ANY', '', #73, .NOT_KNOWN. ) ;
#178 = APPROVAL ( #190, 'UNSPECIFIED' ) ;
#179 = APPLICATION_PROTOCOL_DEFINITION ( 'international standard', 'config_control_design', 1994, #244 ) ;
#180 = CC_DESIGN_PERSON_AND_ORGANIZATION_ASSIGNMENT ( #181, #95, ( #34 ) ) ;
#181 = PERSON_AND_ORGANIZATION ( #12, #204 ) ;
#182 = APPLICATION_PROTOCOL_DEFINITION ( 'international standard', 'config_control_design', 1994, #163 ) ;
#183 = ORIENTED_EDGE ( 'NONE', *, *, #114, .F. ) ;
#184 = CC_DESIGN_APPROVAL ( #254, ( #177 ) ) ;
#185 = APPROVAL_ROLE ( '' ) ;
#186 = AXIS2_PLACEMENT_3D ( 'NONE', #45, #15, #83 ) ;
#187 = EDGE_LOOP ( 'NONE', ( #74 ) ) ;
#188 = EDGE_CURVE ( 'NONE', #274, #274, #135, .T. ) ;
#189 = AXIS2_PLACEMENT_3D ( 'NONE', #111, #303, #2 ) ;
#190 = APPROVAL_STATUS ( 'not_yet_approved' ) ;
#191 = EDGE_LOOP ( 'NONE', ( #292 ) ) ;
#192 = PERSON_AND_ORGANIZATION_ROLE ( 'design_supplier' ) ;
#193 = EDGE_LOOP ( 'NONE', ( #100 ) ) ;
#194 = APPROVAL_PERSON_ORGANIZATION ( #209, #241, #117 ) ;
#195 = ORIENTED_EDGE ( 'NONE', *, *, #69, .T. ) ;
#196 = FACE_BOUND ( 'NONE', #191, .T. ) ;
#197 = DIRECTION ( 'NONE',  ( -1.000000000000000000, 0.0000000000000000000, 3.469446951953624444E-15 ) ) ;
#198 = FACE_OUTER_BOUND ( 'NONE', #164, .T. ) ;
#199 = DIRECTION ( 'NONE',  ( -3.491481338843133355E-15, 0.0000000000000000000, -1.000000000000000000 ) ) ;
#200 = DIRECTION ( 'NONE',  ( -3.491481338843133355E-15, 0.0000000000000000000, -1.000000000000000000 ) ) ;
#201 = MANIFOLD_SOLID_BREP ( 'Corps-Déplacer/Copier1[2]', #110 ) ;
#202 = CARTESIAN_POINT ( 'NONE',  ( -1.499999999999967804, 0.0000000000000000000, 7.973823530858116015 ) ) ;
#203 = ADVANCED_FACE ( 'NONE', ( #87, #176 ), #153, .F. ) ;
#204 = ORGANIZATION ( 'UNSPECIFIED', 'UNSPECIFIED', '' ) ;
#205 = VERTEX_POINT ( 'NONE', #22 ) ;
#206 = CARTESIAN_POINT ( 'NONE',  ( 1.367835977083875962E-14, 0.0000000000000000000, 3.917637943146201618 ) ) ;
#207 = VERTEX_POINT ( 'NONE', #47 ) ;
#208 = ADVANCED_BREP_SHAPE_REPRESENTATION ( '995883', ( #3, #201, #227 ), #286 ) ;
#209 = PERSON_AND_ORGANIZATION ( #12, #204 ) ;
#210 = ORIENTED_EDGE ( 'NONE', *, *, #246, .T. ) ;
#211 = DIRECTION ( 'NONE',  ( 1.000000000000000000, 0.0000000000000000000, 0.0000000000000000000 ) ) ;
#212 = CARTESIAN_POINT ( 'NONE',  ( 2.784045605721935790E-14, 0.0000000000000000000, 7.973823530858110686 ) ) ;
#213 = CIRCLE ( 'NONE', #174, 0.3460000000000000853 ) ;
#214 = PERSON_AND_ORGANIZATION ( #12, #204 ) ;
#215 = ADVANCED_FACE ( 'NONE', ( #247 ), #106, .F. ) ;
#216 = DIRECTION ( 'NONE',  ( -1.000000000000000000, 0.0000000000000000000, 3.484935554417693049E-15 ) ) ;
#217 = CIRCLE ( 'NONE', #140, 1.499999999999995559 ) ;
#218 = CIRCLE ( 'NONE', #172, 0.4899999999999999911 ) ;
#219 = AXIS2_PLACEMENT_3D ( 'NONE', #157, #160, #94 ) ;
#220 = DIRECTION ( 'NONE',  ( -3.491481338843133355E-15, 0.0000000000000000000, -1.000000000000000000 ) ) ;
#221 = CARTESIAN_POINT ( 'NONE',  ( 1.226507835763424362E-15, 0.0000000000000000000, 0.3512858058607912226 ) ) ;
#222 = EDGE_CURVE ( 'NONE', #113, #113, #9, .T. ) ;
#223 = FACE_OUTER_BOUND ( 'NONE', #262, .T. ) ;
#224 = AXIS2_PLACEMENT_3D ( 'NONE', #143, #79, #265 ) ;
#225 = CARTESIAN_POINT ( 'NONE',  ( 2.902763074826369542E-16, 0.0000000000000000000, 0.08313843876330641314 ) ) ;
#226 = VERTEX_POINT ( 'NONE', #134 ) ;
#227 = AXIS2_PLACEMENT_3D ( 'NONE', #26, #115, #211 ) ;
#228 = CARTESIAN_POINT ( 'NONE',  ( 1.226507835763424165E-15, -1.103956040224902389E-16, 0.3512858058607911671 ) ) ;
#229 = CC_DESIGN_DATE_AND_TIME_ASSIGNMENT ( #5, #144, ( #298 ) ) ;
#230 = VERTEX_POINT ( 'NONE', #276 ) ;
#231 = DATE_AND_TIME ( #240, #250 ) ;
#232 = ORIENTED_EDGE ( 'NONE', *, *, #93, .F. ) ;
#233 = EDGE_LOOP ( 'NONE', ( #82 ) ) ;
#234 = CC_DESIGN_PERSON_AND_ORGANIZATION_ASSIGNMENT ( #138, #161, ( #298 ) ) ;
#235 = CALENDAR_DATE ( 2021, 17, 12 ) ;
#236 = FACE_BOUND ( 'NONE', #78, .T. ) ;
#237 = DATE_AND_TIME ( #141, #71 ) ;
#238 = CONICAL_SURFACE ( 'NONE', #291, 1.199999999999995293, 0.7853981633974453924 ) ;
#239 = ORIENTED_EDGE ( 'NONE', *, *, #222, .F. ) ;
#240 = CALENDAR_DATE ( 2021, 17, 12 ) ;
#241 = APPROVAL ( #7, 'UNSPECIFIED' ) ;
#242 = DIRECTION ( 'NONE',  ( -3.491481338843133355E-15, 0.0000000000000000000, -1.000000000000000000 ) ) ;
#243 = DIRECTION ( 'NONE',  ( -1.000000000000000000, 0.0000000000000000000, 5.782411586589379332E-15 ) ) ;
#244 = APPLICATION_CONTEXT ( 'configuration controlled 3d designs of mechanical parts and assemblies' ) ;
#245 = CIRCLE ( 'NONE', #99, 0.3449999999999996403 ) ;
#246 = EDGE_CURVE ( 'NONE', #301, #301, #245, .T. ) ;
#247 = FACE_OUTER_BOUND ( 'NONE', #147, .T. ) ;
#248 = DIRECTION ( 'NONE',  ( -1.000000000000000000, 0.0000000000000000000, 5.782411586589379332E-15 ) ) ;
#249 = CARTESIAN_POINT ( 'NONE',  ( 1.226507835763424165E-15, -1.103956040224902389E-16, 0.3512858058607911671 ) ) ;
#250 = LOCAL_TIME ( 9, 27, 3.000000000000000000, #56 ) ;
#251 = FACE_BOUND ( 'NONE', #167, .T. ) ;
#252 = CARTESIAN_POINT ( 'NONE',  ( -0.4899999999999996581, 0.0000000000000000000, 0.1001384387633081213 ) ) ;
#253 = CC_DESIGN_SECURITY_CLASSIFICATION ( #34, ( #177 ) ) ;
#254 = APPROVAL ( #280, 'UNSPECIFIED' ) ;
#255 = CARTESIAN_POINT ( 'NONE',  ( -0.3449999999999877609, 0.0000000000000000000, 3.399999852941174350 ) ) ;
#256 = DIRECTION ( 'NONE',  ( 1.000000000000000000, 0.0000000000000000000, -3.491481338843133355E-15 ) ) ;
#257 = APPROVAL_DATE_TIME ( #101, #178 ) ;
#258 = PERSON_AND_ORGANIZATION_ROLE ( 'creator' ) ;
#259 = EDGE_LOOP ( 'NONE', ( #39 ) ) ;
#260 = EDGE_LOOP ( 'NONE', ( #195 ) ) ;
#261 = SECURITY_CLASSIFICATION_LEVEL ( 'unclassified' ) ;
#262 = EDGE_LOOP ( 'NONE', ( #290 ) ) ;
#263 = LOCAL_TIME ( 9, 27, 3.000000000000000000, #284 ) ;
#264 = CONICAL_SURFACE ( 'NONE', #35, 1.499999999999995559, 0.2617993877991428575 ) ;
#265 = DIRECTION ( 'NONE',  ( -1.000000000000000000, 0.0000000000000000000, 3.491481338843132961E-15 ) ) ;
#266 = EDGE_LOOP ( 'NONE', ( #55 ) ) ;
#267 = DIRECTION ( 'NONE',  ( -1.000000000000000000, 0.0000000000000000000, 3.456876491982772025E-15 ) ) ;
#268 = FACE_OUTER_BOUND ( 'NONE', #260, .T. ) ;
#269 = CC_DESIGN_PERSON_AND_ORGANIZATION_ASSIGNMENT ( #287, #258, ( #177 ) ) ;
#270 = CONICAL_SURFACE ( 'NONE', #126, 0.4899999999999999911, 1.047197551196596077 ) ;
#271 = DIRECTION ( 'NONE',  ( -3.491481338843133355E-15, 0.0000000000000000000, -1.000000000000000000 ) ) ;
#272 = DIRECTION ( 'NONE',  ( -3.491481338843133355E-15, 0.0000000000000000000, -1.000000000000000000 ) ) ;
#273 = APPROVAL_PERSON_ORGANIZATION ( #279, #178, #185 ) ;
#274 = VERTEX_POINT ( 'NONE', #27 ) ;
#275 = ADVANCED_FACE ( 'NONE', ( #302 ), #112, .F. ) ;
#276 = CARTESIAN_POINT ( 'NONE',  ( -1.499999999999863665, 0.0000000000000000000, 37.70000000000000284 ) ) ;
#277 = LOCAL_TIME ( 9, 27, 3.000000000000000000, #14 ) ;
#278 = DIRECTION ( 'NONE',  ( 3.491481338843133355E-15, 0.0000000000000000000, 1.000000000000000000 ) ) ;
#279 = PERSON_AND_ORGANIZATION ( #12, #204 ) ;
#280 = APPROVAL_STATUS ( 'not_yet_approved' ) ;
#281 = EDGE_CURVE ( 'NONE', #205, #205, #213, .T. ) ;
#282 = EDGE_LOOP ( 'NONE', ( #139 ) ) ;
#283 = APPROVAL_PERSON_ORGANIZATION ( #214, #254, #58 ) ;
#284 = COORDINATED_UNIVERSAL_TIME_OFFSET ( 1, 0, .AHEAD. ) ;
#285 = FACE_OUTER_BOUND ( 'NONE', #193, .T. ) ;
#286 =( GEOMETRIC_REPRESENTATION_CONTEXT ( 3 ) GLOBAL_UNCERTAINTY_ASSIGNED_CONTEXT ( ( #23 ) ) GLOBAL_UNIT_ASSIGNED_CONTEXT ( ( #109, #24, #158 ) ) REPRESENTATION_CONTEXT ( 'NONE', 'WORKASPACE' ) );
#287 = PERSON_AND_ORGANIZATION ( #12, #204 ) ;
#288 = ORIENTED_EDGE ( 'NONE', *, *, #76, .T. ) ;
#289 = PERSON_AND_ORGANIZATION ( #12, #204 ) ;
#290 = ORIENTED_EDGE ( 'NONE', *, *, #145, .F. ) ;
#291 = AXIS2_PLACEMENT_3D ( 'NONE', #124, #40, #248 ) ;
#292 = ORIENTED_EDGE ( 'NONE', *, *, #281, .F. ) ;
#293 = DIRECTION ( 'NONE',  ( -1.000000000000000000, 0.0000000000000000000, 3.491481338843133355E-15 ) ) ;
#294 = FACE_OUTER_BOUND ( 'NONE', #187, .T. ) ;
#295 = ADVANCED_FACE ( 'NONE', ( #136, #251 ), #300, .T. ) ;
#296 = DIRECTION ( 'NONE',  ( 1.000000000000000000, 0.0000000000000000000, -3.469446951953624444E-15 ) ) ;
#297 = FACE_OUTER_BOUND ( 'NONE', #266, .T. ) ;
#298 = PRODUCT_DEFINITION ( 'UNKNOWN', '', #177, #20 ) ;
#299 = DIRECTION ( 'NONE',  ( 3.491481338843133355E-15, 0.0000000000000000000, 1.000000000000000000 ) ) ;
#300 = CONICAL_SURFACE ( 'NONE', #189, 0.3449999999999995848, 0.5235987755983040337 ) ;
#301 = VERTEX_POINT ( 'NONE', #255 ) ;
#302 = FACE_OUTER_BOUND ( 'NONE', #6, .T. ) ;
#303 = DIRECTION ( 'NONE',  ( -3.491481338843133355E-15, 0.0000000000000000000, -1.000000000000000000 ) ) ;
ENDSEC;
END-ISO-10303-21;
