ISO-10303-21;
HEADER;
FILE_DESCRIPTION (( 'STEP AP203' ),
    '1' );
FILE_NAME ('995882.step',
    '2021-12-17T08:27:02',
    ( '' ),
    ( '' ),
    'SwSTEP 2.0',
    'SolidWorks 2019',
    '' );
FILE_SCHEMA (( 'CONFIG_CONTROL_DESIGN' ));
ENDSEC;

DATA;
#1 = PERSON_AND_ORGANIZATION_ROLE ( 'design_owner' ) ;
#2 = ADVANCED_FACE ( 'NONE', ( #57, #238 ), #78, .T. ) ;
#3 = DIRECTION ( 'NONE',  ( -3.491481338843133355E-15, 0.0000000000000000000, -1.000000000000000000 ) ) ;
#4 = DIRECTION ( 'NONE',  ( -3.491481338843133355E-15, 0.0000000000000000000, -1.000000000000000000 ) ) ;
#5 = EDGE_LOOP ( 'NONE', ( #112 ) ) ;
#6 = MECHANICAL_CONTEXT ( 'NONE', #186, 'mechanical' ) ;
#7 = DIRECTION ( 'NONE',  ( -3.491481338843133355E-15, 0.0000000000000000000, -1.000000000000000000 ) ) ;
#8 = CARTESIAN_POINT ( 'NONE',  ( 0.0000000000000000000, 0.0000000000000000000, 0.0000000000000000000 ) ) ;
#9 = CALENDAR_DATE ( 2021, 17, 12 ) ;
#10 = PERSON_AND_ORGANIZATION ( #33, #115 ) ;
#11 = DIRECTION ( 'NONE',  ( -3.491481338843133355E-15, 0.0000000000000000000, -1.000000000000000000 ) ) ;
#12 = APPROVAL_ROLE ( '' ) ;
#13 = EDGE_CURVE ( 'NONE', #194, #194, #216, .T. ) ;
#14 = COORDINATED_UNIVERSAL_TIME_OFFSET ( 1, 0, .AHEAD. ) ;
#15 = ADVANCED_FACE ( 'NONE', ( #174, #109 ), #171, .T. ) ;
#16 = PRODUCT_DEFINITION_FORMATION_WITH_SPECIFIED_SOURCE ( 'ANY', '', #152, .NOT_KNOWN. ) ;
#17 = AXIS2_PLACEMENT_3D ( 'NONE', #8, #172, #125 ) ;
#18 = AXIS2_PLACEMENT_3D ( 'NONE', #60, #39, #117 ) ;
#19 = DESIGN_CONTEXT ( 'detailed design', #37, 'design' ) ;
#20 = FACE_OUTER_BOUND ( 'NONE', #130, .T. ) ;
#21 = ADVANCED_FACE ( 'NONE', ( #195 ), #261, .F. ) ;
#22 = APPROVAL ( #159, 'UNSPECIFIED' ) ;
#23 = CARTESIAN_POINT ( 'NONE',  ( 9.776147125281942668E-15, 0.0000000000000000000, 2.799999821428565738 ) ) ;
#24 = CONICAL_SURFACE ( 'NONE', #200, 0.4000000000000000222, 1.047197551196596299 ) ;
#25 = FACE_OUTER_BOUND ( 'NONE', #145, .T. ) ;
#26 = EDGE_LOOP ( 'NONE', ( #150 ) ) ;
#27 = FACE_BOUND ( 'NONE', #131, .T. ) ;
#28 = ORIENTED_EDGE ( 'NONE', *, *, #294, .T. ) ;
#29 = DIRECTION ( 'NONE',  ( -1.000000000000000000, 0.0000000000000000000, 3.401418580346684862E-15 ) ) ;
#30 = AXIS2_PLACEMENT_3D ( 'NONE', #241, #4, #285 ) ;
#31 = AXIS2_PLACEMENT_3D ( 'NONE', #205, #135, #290 ) ;
#32 = VERTEX_POINT ( 'NONE', #155 ) ;
#33 = PERSON ( 'UNSPECIFIED', 'UNSPECIFIED', 'UNSPECIFIED', ('UNSPECIFIED'), ('UNSPECIFIED'), ('UNSPECIFIED') ) ;
#34 = ORIENTED_EDGE ( 'NONE', *, *, #161, .F. ) ;
#35 = DIRECTION ( 'NONE',  ( 3.491481338843133355E-15, 0.0000000000000000000, 1.000000000000000000 ) ) ;
#36 = FACE_OUTER_BOUND ( 'NONE', #127, .T. ) ;
#37 = APPLICATION_CONTEXT ( 'configuration controlled 3d designs of mechanical parts and assemblies' ) ;
#38 = COORDINATED_UNIVERSAL_TIME_OFFSET ( 1, 0, .AHEAD. ) ;
#39 = DIRECTION ( 'NONE',  ( -3.491481338843133355E-15, 0.0000000000000000000, -1.000000000000000000 ) ) ;
#40 = VERTEX_POINT ( 'NONE', #257 ) ;
#41 = AXIS2_PLACEMENT_3D ( 'NONE', #211, #126, #297 ) ;
#42 = SECURITY_CLASSIFICATION ( '', '', #228 ) ;
#43 = DIRECTION ( 'NONE',  ( 1.000000000000000000, 0.0000000000000000000, -3.469446951953624444E-15 ) ) ;
#44 = DATE_AND_TIME ( #47, #58 ) ;
#45 = DATE_AND_TIME ( #247, #292 ) ;
#46 = PERSON_AND_ORGANIZATION ( #33, #115 ) ;
#47 = CALENDAR_DATE ( 2021, 17, 12 ) ;
#48 = AXIS2_PLACEMENT_3D ( 'NONE', #142, #54, #251 ) ;
#49 = DIRECTION ( 'NONE',  ( -1.000000000000000000, 0.0000000000000000000, 3.491481338843133355E-15 ) ) ;
#50 = DIRECTION ( 'NONE',  ( -1.000000000000000000, 0.0000000000000000000, 5.782411586589379332E-15 ) ) ;
#51 = ORIENTED_EDGE ( 'NONE', *, *, #301, .T. ) ;
#52 = CLOSED_SHELL ( 'NONE', ( #21, #2, #137, #268, #15, #183, #71 ) ) ;
#53 = CARTESIAN_POINT ( 'NONE',  ( 1.158347085750720063E-14, 0.0000000000000000000, 3.317637911633594783 ) ) ;
#54 = DIRECTION ( 'NONE',  ( -3.491481338843133355E-15, 0.0000000000000000000, -1.000000000000000000 ) ) ;
#55 = EDGE_LOOP ( 'NONE', ( #234 ) ) ;
#56 = CARTESIAN_POINT ( 'NONE',  ( -1.499999999999968692, 0.0000000000000000000, 7.709708072026717929 ) ) ;
#57 = FACE_OUTER_BOUND ( 'NONE', #213, .T. ) ;
#58 = LOCAL_TIME ( 9, 27, 2.000000000000000000, #93 ) ;
#59 = COORDINATED_UNIVERSAL_TIME_OFFSET ( 1, 0, .AHEAD. ) ;
#60 = CARTESIAN_POINT ( 'NONE',  ( 2.691830186140953988E-14, 0.0000000000000000000, 7.709708072026712600 ) ) ;
#61 = DIRECTION ( 'NONE',  ( 3.491481338843133355E-15, 0.0000000000000000000, 1.000000000000000000 ) ) ;
#62 = APPROVAL ( #84, 'UNSPECIFIED' ) ;
#63 = CARTESIAN_POINT ( 'NONE',  ( -0.2549999999999899569, 0.0000000000000000000, 2.799999821428566626 ) ) ;
#64 = DATE_TIME_ROLE ( 'creation_date' ) ;
#65 = APPROVAL_PERSON_ORGANIZATION ( #67, #22, #12 ) ;
#66 = CC_DESIGN_PERSON_AND_ORGANIZATION_ASSIGNMENT ( #90, #265, ( #111 ) ) ;
#67 = PERSON_AND_ORGANIZATION ( #33, #115 ) ;
#68 = CIRCLE ( 'NONE', #48, 0.4000000000000000222 ) ;
#69 = LOCAL_TIME ( 9, 27, 2.000000000000000000, #59 ) ;
#70 = COORDINATED_UNIVERSAL_TIME_OFFSET ( 1, 0, .AHEAD. ) ;
#71 = ADVANCED_FACE ( 'NONE', ( #36 ), #277, .F. ) ;
#72 = DIRECTION ( 'NONE',  ( -3.491481338843133355E-15, 0.0000000000000000000, -1.000000000000000000 ) ) ;
#73 = LOCAL_TIME ( 9, 27, 2.000000000000000000, #70 ) ;
#74 = UNCERTAINTY_MEASURE_WITH_UNIT (LENGTH_MEASURE( 1.000000000000000082E-05 ), #81, 'distance_accuracy_value', 'NONE');
#75 = DIRECTION ( 'NONE',  ( 3.491481338843133355E-15, 0.0000000000000000000, 1.000000000000000000 ) ) ;
#76 = CARTESIAN_POINT ( 'NONE',  ( 1.326762908760390423E-13, 0.0000000000000000000, 38.00000000000000000 ) ) ;
#77 = MANIFOLD_SOLID_BREP ( 'Corps-Déplacer/Copier1[2]', #287 ) ;
#78 = CYLINDRICAL_SURFACE ( 'NONE', #17, 0.2549999999999996714 ) ;
#79 = AXIS2_PLACEMENT_3D ( 'NONE', #76, #252, #50 ) ;
#80 = CC_DESIGN_SECURITY_CLASSIFICATION ( #42, ( #16 ) ) ;
#81 =( LENGTH_UNIT ( ) NAMED_UNIT ( * ) SI_UNIT ( .MILLI., .METRE. ) );
#82 = CARTESIAN_POINT ( 'NONE',  ( 1.326762908760390423E-13, 0.0000000000000000000, 38.00000000000000000 ) ) ;
#83 = ORIENTED_EDGE ( 'NONE', *, *, #293, .T. ) ;
#84 = APPROVAL_STATUS ( 'not_yet_approved' ) ;
#85 = ORIENTED_EDGE ( 'NONE', *, *, #161, .T. ) ;
#86 = CARTESIAN_POINT ( 'NONE',  ( 0.0000000000000000000, 0.0000000000000000000, 0.0000000000000000000 ) ) ;
#87 = CC_DESIGN_PERSON_AND_ORGANIZATION_ASSIGNMENT ( #259, #1, ( #152 ) ) ;
#88 = AXIS2_PLACEMENT_3D ( 'NONE', #82, #72, #167 ) ;
#89 = CIRCLE ( 'NONE', #31, 0.4000000000000000222 ) ;
#90 = PERSON_AND_ORGANIZATION ( #33, #115 ) ;
#91 = EDGE_LOOP ( 'NONE', ( #303 ) ) ;
#92 = FACE_OUTER_BOUND ( 'NONE', #192, .T. ) ;
#93 = COORDINATED_UNIVERSAL_TIME_OFFSET ( 1, 0, .AHEAD. ) ;
#94 = CARTESIAN_POINT ( 'NONE',  ( 2.691830186140953988E-14, 0.0000000000000000000, 7.709708072026712600 ) ) ;
#95 = AXIS2_PLACEMENT_3D ( 'NONE', #123, #146, #235 ) ;
#96 = CARTESIAN_POINT ( 'NONE',  ( -0.3999999999999997446, 0.0000000000000000000, 0.08313843876330778704 ) ) ;
#97 = APPROVAL_DATE_TIME ( #139, #22 ) ;
#98 = PERSON_AND_ORGANIZATION_ROLE ( 'classification_officer' ) ;
#99 = TOROIDAL_SURFACE ( 'NONE', #164, 2.254999999999999449, 2.000000000000000000 ) ;
#100 = CC_DESIGN_PERSON_AND_ORGANIZATION_ASSIGNMENT ( #10, #295, ( #16 ) ) ;
#101 = PLANE ( 'NONE',  #168 ) ;
#102 = FACE_OUTER_BOUND ( 'NONE', #114, .T. ) ;
#103 = DIRECTION ( 'NONE',  ( -3.491481338843133355E-15, 0.0000000000000000000, -1.000000000000000000 ) ) ;
#104 = ORIENTED_EDGE ( 'NONE', *, *, #280, .F. ) ;
#105 = ORIENTED_EDGE ( 'NONE', *, *, #249, .F. ) ;
#106 = AXIS2_PLACEMENT_3D ( 'NONE', #86, #264, #218 ) ;
#107 = VERTEX_POINT ( 'NONE', #203 ) ;
#108 = CARTESIAN_POINT ( 'NONE',  ( 9.776147125281942668E-15, 0.0000000000000000000, 2.799999821428565738 ) ) ;
#109 = FACE_OUTER_BOUND ( 'NONE', #134, .T. ) ;
#110 = CARTESIAN_POINT ( 'NONE',  ( 0.0000000000000000000, 0.0000000000000000000, 0.0000000000000000000 ) ) ;
#111 = PRODUCT_DEFINITION ( 'UNKNOWN', '', #16, #19 ) ;
#112 = ORIENTED_EDGE ( 'NONE', *, *, #210, .F. ) ;
#113 = CALENDAR_DATE ( 2021, 17, 12 ) ;
#114 = EDGE_LOOP ( 'NONE', ( #83 ) ) ;
#115 = ORGANIZATION ( 'UNSPECIFIED', 'UNSPECIFIED', '' ) ;
#116 = PERSON_AND_ORGANIZATION_ROLE ( 'design_supplier' ) ;
#117 = DIRECTION ( 'NONE',  ( -1.000000000000000000, 0.0000000000000000000, 3.469446951953624444E-15 ) ) ;
#118 = APPROVAL_DATE_TIME ( #44, #282 ) ;
#119 = CARTESIAN_POINT ( 'NONE',  ( -0.3231483474218481144, 0.0000000000000000000, 3.317637911633595671 ) ) ;
#120 = FACE_OUTER_BOUND ( 'NONE', #288, .T. ) ;
#121 = CC_DESIGN_APPROVAL ( #62, ( #111 ) ) ;
#122 = DIRECTION ( 'NONE',  ( -1.000000000000000000, 0.0000000000000000000, 3.401418580346684862E-15 ) ) ;
#123 = CARTESIAN_POINT ( 'NONE',  ( 1.326762908760390423E-13, 0.0000000000000000000, 38.00000000000000000 ) ) ;
#124 = ORIENTED_EDGE ( 'NONE', *, *, #293, .F. ) ;
#125 = DIRECTION ( 'NONE',  ( -1.000000000000000000, 0.0000000000000000000, 3.491481338843133750E-15 ) ) ;
#126 = DIRECTION ( 'NONE',  ( 3.491481338843133355E-15, 0.0000000000000000000, 1.000000000000000000 ) ) ;
#127 = EDGE_LOOP ( 'NONE', ( #105 ) ) ;
#128 = EDGE_CURVE ( 'NONE', #267, #267, #140, .T. ) ;
#129 = CC_DESIGN_DATE_AND_TIME_ASSIGNMENT ( #179, #64, ( #111 ) ) ;
#130 = EDGE_LOOP ( 'NONE', ( #85 ) ) ;
#131 = EDGE_LOOP ( 'NONE', ( #236 ) ) ;
#132 = VERTEX_POINT ( 'NONE', #239 ) ;
#133 = CC_DESIGN_APPROVAL ( #282, ( #42 ) ) ;
#134 = EDGE_LOOP ( 'NONE', ( #220 ) ) ;
#135 = DIRECTION ( 'NONE',  ( -3.491481338843133355E-15, 0.0000000000000000000, -1.000000000000000000 ) ) ;
#136 = PERSON_AND_ORGANIZATION ( #33, #115 ) ;
#137 = ADVANCED_FACE ( 'NONE', ( #230, #300 ), #99, .F. ) ;
#138 = AXIS2_PLACEMENT_3D ( 'NONE', #199, #11, #160 ) ;
#139 = DATE_AND_TIME ( #162, #73 ) ;
#140 = CIRCLE ( 'NONE', #266, 0.3231483474218597163 ) ;
#141 = PLANE ( 'NONE',  #41 ) ;
#142 = CARTESIAN_POINT ( 'NONE',  ( 2.902763074826369049E-16, 0.0000000000000000000, 0.08313843876330639926 ) ) ;
#143 = DIRECTION ( 'NONE',  ( 1.000000000000000000, 0.0000000000000000000, -3.489775742687717397E-15 ) ) ;
#144 = AXIS2_PLACEMENT_3D ( 'NONE', #180, #240, #284 ) ;
#145 = EDGE_LOOP ( 'NONE', ( #197 ) ) ;
#146 = DIRECTION ( 'NONE',  ( -3.491481338843133355E-15, 0.0000000000000000000, -1.000000000000000000 ) ) ;
#147 = EDGE_LOOP ( 'NONE', ( #202 ) ) ;
#148 = CARTESIAN_POINT ( 'NONE',  ( 1.226507835763424165E-15, 0.0000000000000000000, 0.3512858058607911671 ) ) ;
#149 = PRODUCT_RELATED_PRODUCT_CATEGORY ( 'detail', '', ( #152 ) ) ;
#150 = ORIENTED_EDGE ( 'NONE', *, *, #249, .T. ) ;
#151 = ADVANCED_FACE ( 'NONE', ( #187, #20 ), #24, .T. ) ;
#152 = PRODUCT ( '995882', '995882', '', ( #6 ) ) ;
#153 = CARTESIAN_POINT ( 'NONE',  ( 1.226507835763424165E-15, -7.467937919168456541E-17, 0.3512858058607911671 ) ) ;
#154 = DIRECTION ( 'NONE',  ( 1.000000000000000000, 0.0000000000000000000, -3.491481338843133355E-15 ) ) ;
#155 = CARTESIAN_POINT ( 'NONE',  ( -1.199999999999862732, 0.0000000000000000000, 38.00000000000000711 ) ) ;
#156 =( NAMED_UNIT ( * ) PLANE_ANGLE_UNIT ( ) SI_UNIT ( $, .RADIAN. ) );
#157 = CIRCLE ( 'NONE', #144, 0.2549999999999996714 ) ;
#158 = CIRCLE ( 'NONE', #138, 1.499999999999995337 ) ;
#159 = APPROVAL_STATUS ( 'not_yet_approved' ) ;
#160 = DIRECTION ( 'NONE',  ( -1.000000000000000000, 0.0000000000000000000, 4.625929269271500311E-15 ) ) ;
#161 = EDGE_CURVE ( 'NONE', #207, #207, #68, .T. ) ;
#162 = CALENDAR_DATE ( 2021, 17, 12 ) ;
#163 =( GEOMETRIC_REPRESENTATION_CONTEXT ( 3 ) GLOBAL_UNCERTAINTY_ASSIGNED_CONTEXT ( ( #74 ) ) GLOBAL_UNIT_ASSIGNED_CONTEXT ( ( #81, #156, #279 ) ) REPRESENTATION_CONTEXT ( 'NONE', 'WORKASPACE' ) );
#164 = AXIS2_PLACEMENT_3D ( 'NONE', #108, #258, #170 ) ;
#165 = FACE_OUTER_BOUND ( 'NONE', #253, .T. ) ;
#166 = FACE_OUTER_BOUND ( 'NONE', #214, .T. ) ;
#167 = DIRECTION ( 'NONE',  ( -1.000000000000000000, 0.0000000000000000000, 3.491481338843133355E-15 ) ) ;
#168 = AXIS2_PLACEMENT_3D ( 'NONE', #233, #75, #274 ) ;
#169 = AXIS2_PLACEMENT_3D ( 'NONE', #281, #7, #244 ) ;
#170 = DIRECTION ( 'NONE',  ( -1.000000000000000000, 0.0000000000000000000, 3.491481338843133355E-15 ) ) ;
#171 = CYLINDRICAL_SURFACE ( 'NONE', #106, 1.499999999999995337 ) ;
#172 = DIRECTION ( 'NONE',  ( -3.491481338843133355E-15, 0.0000000000000000000, -1.000000000000000000 ) ) ;
#173 = APPROVAL_ROLE ( '' ) ;
#174 = FACE_OUTER_BOUND ( 'NONE', #147, .T. ) ;
#175 = APPLICATION_PROTOCOL_DEFINITION ( 'international standard', 'config_control_design', 1994, #186 ) ;
#176 = ORIENTED_EDGE ( 'NONE', *, *, #210, .T. ) ;
#177 = CIRCLE ( 'NONE', #169, 0.2560000000000000608 ) ;
#178 = MANIFOLD_SOLID_BREP ( 'Corps-Déplacer/Copier1[1]', #52 ) ;
#179 = DATE_AND_TIME ( #9, #227 ) ;
#180 = CARTESIAN_POINT ( 'NONE',  ( 1.226507835763424165E-15, 0.0000000000000000000, 0.3512858058607911671 ) ) ;
#181 = APPROVAL_ROLE ( '' ) ;
#182 = CARTESIAN_POINT ( 'NONE',  ( -0.2549999999999984501, 0.0000000000000000000, 0.3512858058607920553 ) ) ;
#183 = ADVANCED_FACE ( 'NONE', ( #166, #272 ), #215, .T. ) ;
#184 = DATE_TIME_ROLE ( 'classification_date' ) ;
#185 = ADVANCED_BREP_SHAPE_REPRESENTATION ( '995882', ( #178, #77, #255 ), #163 ) ;
#186 = APPLICATION_CONTEXT ( 'configuration controlled 3d designs of mechanical parts and assemblies' ) ;
#187 = FACE_BOUND ( 'NONE', #278, .T. ) ;
#188 = FACE_OUTER_BOUND ( 'NONE', #91, .T. ) ;
#189 = DIRECTION ( 'NONE',  ( -1.000000000000000000, 0.0000000000000000000, 4.026146558887198082E-15 ) ) ;
#190 = EDGE_LOOP ( 'NONE', ( #276 ) ) ;
#191 = CONICAL_SURFACE ( 'NONE', #298, 0.2549999999999996714, 0.5235987755983040337 ) ;
#192 = EDGE_LOOP ( 'NONE', ( #28 ) ) ;
#193 = CARTESIAN_POINT ( 'NONE',  ( -0.2560000000000000608, 0.0000000000000000000, 9.073717498999111731E-16 ) ) ;
#194 = VERTEX_POINT ( 'NONE', #182 ) ;
#195 = FACE_OUTER_BOUND ( 'NONE', #256, .T. ) ;
#196 = DIRECTION ( 'NONE',  ( 0.0000000000000000000, 0.0000000000000000000, 1.000000000000000000 ) ) ;
#197 = ORIENTED_EDGE ( 'NONE', *, *, #301, .F. ) ;
#198 = PRODUCT_DEFINITION_SHAPE ( 'NONE', 'NONE',  #111 ) ;
#199 = CARTESIAN_POINT ( 'NONE',  ( 1.316288464743861212E-13, 0.0000000000000000000, 37.69999999999999574 ) ) ;
#200 = AXIS2_PLACEMENT_3D ( 'NONE', #250, #275, #143 ) ;
#201 = CIRCLE ( 'NONE', #18, 1.499999999999995559 ) ;
#202 = ORIENTED_EDGE ( 'NONE', *, *, #294, .F. ) ;
#203 = CARTESIAN_POINT ( 'NONE',  ( -1.499999999999863665, 0.0000000000000000000, 37.70000000000000284 ) ) ;
#204 = FACE_BOUND ( 'NONE', #190, .T. ) ;
#205 = CARTESIAN_POINT ( 'NONE',  ( 3.496314902429700970E-16, 0.0000000000000000000, 0.1001384387633063866 ) ) ;
#206 = ADVANCED_FACE ( 'NONE', ( #120, #165 ), #273, .T. ) ;
#207 = VERTEX_POINT ( 'NONE', #96 ) ;
#208 = AXIS2_PLACEMENT_3D ( 'NONE', #94, #35, #43 ) ;
#209 = CIRCLE ( 'NONE', #79, 1.199999999999995293 ) ;
#210 = EDGE_CURVE ( 'NONE', #291, #291, #231, .T. ) ;
#211 = CARTESIAN_POINT ( 'NONE',  ( 2.365919782978951696E-32, 0.0000000000000000000, 6.776263578034402713E-18 ) ) ;
#212 = CARTESIAN_POINT ( 'NONE',  ( 0.0000000000000000000, 0.0000000000000000000, 0.0000000000000000000 ) ) ;
#213 = EDGE_LOOP ( 'NONE', ( #302 ) ) ;
#214 = EDGE_LOOP ( 'NONE', ( #104 ) ) ;
#215 = CONICAL_SURFACE ( 'NONE', #95, 1.199999999999995293, 0.7853981633974453924 ) ;
#216 = CIRCLE ( 'NONE', #30, 0.2549999999999996714 ) ;
#217 = DIRECTION ( 'NONE',  ( -3.491481338843133355E-15, 0.0000000000000000000, -1.000000000000000000 ) ) ;
#218 = DIRECTION ( 'NONE',  ( -1.000000000000000000, 0.0000000000000000000, 3.491481338843133355E-15 ) ) ;
#219 = VERTEX_POINT ( 'NONE', #193 ) ;
#220 = ORIENTED_EDGE ( 'NONE', *, *, #280, .T. ) ;
#221 = ADVANCED_FACE ( 'NONE', ( #102 ), #141, .F. ) ;
#222 = ORIENTED_EDGE ( 'NONE', *, *, #262, .T. ) ;
#223 = AXIS2_PLACEMENT_3D ( 'NONE', #212, #217, #49 ) ;
#224 = CC_DESIGN_DATE_AND_TIME_ASSIGNMENT ( #45, #184, ( #42 ) ) ;
#225 = CC_DESIGN_PERSON_AND_ORGANIZATION_ASSIGNMENT ( #46, #116, ( #16 ) ) ;
#226 = PERSON_AND_ORGANIZATION ( #33, #115 ) ;
#227 = LOCAL_TIME ( 9, 27, 2.000000000000000000, #38 ) ;
#228 = SECURITY_CLASSIFICATION_LEVEL ( 'unclassified' ) ;
#229 = ADVANCED_FACE ( 'NONE', ( #188 ), #101, .T. ) ;
#230 = FACE_OUTER_BOUND ( 'NONE', #5, .T. ) ;
#231 = CIRCLE ( 'NONE', #254, 0.2549999999999996714 ) ;
#232 = CC_DESIGN_APPROVAL ( #22, ( #16 ) ) ;
#233 = CARTESIAN_POINT ( 'NONE',  ( 1.226507835763424165E-15, -7.467937919168456541E-17, 0.3512858058607911671 ) ) ;
#234 = ORIENTED_EDGE ( 'NONE', *, *, #128, .T. ) ;
#235 = DIRECTION ( 'NONE',  ( -1.000000000000000000, 0.0000000000000000000, 5.782411586589379332E-15 ) ) ;
#236 = ORIENTED_EDGE ( 'NONE', *, *, #13, .T. ) ;
#237 = DIRECTION ( 'NONE',  ( -3.491481338843133355E-15, 0.0000000000000000000, -1.000000000000000000 ) ) ;
#238 = FACE_OUTER_BOUND ( 'NONE', #243, .T. ) ;
#239 = CARTESIAN_POINT ( 'NONE',  ( -0.3999999999999996891, 0.0000000000000000000, 0.1001384387633077883 ) ) ;
#240 = DIRECTION ( 'NONE',  ( -3.491481338843133355E-15, 0.0000000000000000000, -1.000000000000000000 ) ) ;
#241 = CARTESIAN_POINT ( 'NONE',  ( 1.226507835763424165E-15, 0.0000000000000000000, 0.3512858058607911671 ) ) ;
#242 = DATE_AND_TIME ( #113, #69 ) ;
#243 = EDGE_LOOP ( 'NONE', ( #176 ) ) ;
#244 = DIRECTION ( 'NONE',  ( -1.000000000000000000, 0.0000000000000000000, 3.491481338843133355E-15 ) ) ;
#245 = VERTEX_POINT ( 'NONE', #56 ) ;
#246 = APPROVAL_PERSON_ORGANIZATION ( #263, #62, #173 ) ;
#247 = CALENDAR_DATE ( 2021, 17, 12 ) ;
#248 = SHAPE_DEFINITION_REPRESENTATION ( #198, #185 ) ;
#249 = EDGE_CURVE ( 'NONE', #32, #32, #209, .T. ) ;
#250 = CARTESIAN_POINT ( 'NONE',  ( 2.902763074826369049E-16, 0.0000000000000000000, 0.08313843876330639926 ) ) ;
#251 = DIRECTION ( 'NONE',  ( -1.000000000000000000, 0.0000000000000000000, 3.489775742687717397E-15 ) ) ;
#252 = DIRECTION ( 'NONE',  ( -3.491481338843133355E-15, 0.0000000000000000000, -1.000000000000000000 ) ) ;
#253 = EDGE_LOOP ( 'NONE', ( #51 ) ) ;
#254 = AXIS2_PLACEMENT_3D ( 'NONE', #23, #3, #122 ) ;
#255 = AXIS2_PLACEMENT_3D ( 'NONE', #110, #196, #283 ) ;
#256 = EDGE_LOOP ( 'NONE', ( #222 ) ) ;
#257 = CARTESIAN_POINT ( 'NONE',  ( -0.2549999999999984501, 0.0000000000000000000, 0.3512858058607920553 ) ) ;
#258 = DIRECTION ( 'NONE',  ( -3.491481338843133355E-15, 0.0000000000000000000, -1.000000000000000000 ) ) ;
#259 = PERSON_AND_ORGANIZATION ( #33, #115 ) ;
#260 = ADVANCED_FACE ( 'NONE', ( #25, #27 ), #191, .T. ) ;
#261 = PLANE ( 'NONE',  #296 ) ;
#262 = EDGE_CURVE ( 'NONE', #40, #40, #157, .T. ) ;
#263 = PERSON_AND_ORGANIZATION ( #33, #115 ) ;
#264 = DIRECTION ( 'NONE',  ( -3.491481338843133355E-15, 0.0000000000000000000, -1.000000000000000000 ) ) ;
#265 = PERSON_AND_ORGANIZATION_ROLE ( 'creator' ) ;
#266 = AXIS2_PLACEMENT_3D ( 'NONE', #53, #103, #189 ) ;
#267 = VERTEX_POINT ( 'NONE', #119 ) ;
#268 = ADVANCED_FACE ( 'NONE', ( #204, #92 ), #299, .T. ) ;
#269 = APPROVAL_STATUS ( 'not_yet_approved' ) ;
#270 = APPROVAL_PERSON_ORGANIZATION ( #226, #282, #181 ) ;
#271 = CC_DESIGN_PERSON_AND_ORGANIZATION_ASSIGNMENT ( #136, #98, ( #42 ) ) ;
#272 = FACE_BOUND ( 'NONE', #26, .T. ) ;
#273 = CYLINDRICAL_SURFACE ( 'NONE', #223, 0.4000000000000000222 ) ;
#274 = DIRECTION ( 'NONE',  ( 1.000000000000000000, 0.0000000000000000000, -3.491481338843133355E-15 ) ) ;
#275 = DIRECTION ( 'NONE',  ( 3.491481338843133355E-15, 0.0000000000000000000, 1.000000000000000000 ) ) ;
#276 = ORIENTED_EDGE ( 'NONE', *, *, #128, .F. ) ;
#277 = PLANE ( 'NONE',  #88 ) ;
#278 = EDGE_LOOP ( 'NONE', ( #124 ) ) ;
#279 =( NAMED_UNIT ( * ) SI_UNIT ( $, .STERADIAN. ) SOLID_ANGLE_UNIT ( ) );
#280 = EDGE_CURVE ( 'NONE', #107, #107, #158, .T. ) ;
#281 = CARTESIAN_POINT ( 'NONE',  ( 4.731839565957903391E-32, 0.0000000000000000000, 1.355252715606880543E-17 ) ) ;
#282 = APPROVAL ( #269, 'UNSPECIFIED' ) ;
#283 = DIRECTION ( 'NONE',  ( 1.000000000000000000, 0.0000000000000000000, 0.0000000000000000000 ) ) ;
#284 = DIRECTION ( 'NONE',  ( -1.000000000000000000, 0.0000000000000000000, 3.401418580346684862E-15 ) ) ;
#285 = DIRECTION ( 'NONE',  ( -1.000000000000000000, 0.0000000000000000000, 3.401418580346684862E-15 ) ) ;
#286 = APPROVAL_DATE_TIME ( #242, #62 ) ;
#287 = CLOSED_SHELL ( 'NONE', ( #221, #151, #206, #260, #229 ) ) ;
#288 = EDGE_LOOP ( 'NONE', ( #34 ) ) ;
#289 = APPLICATION_PROTOCOL_DEFINITION ( 'international standard', 'config_control_design', 1994, #37 ) ;
#290 = DIRECTION ( 'NONE',  ( -1.000000000000000000, 0.0000000000000000000, 3.489775742687717397E-15 ) ) ;
#291 = VERTEX_POINT ( 'NONE', #63 ) ;
#292 = LOCAL_TIME ( 9, 27, 2.000000000000000000, #14 ) ;
#293 = EDGE_CURVE ( 'NONE', #219, #219, #177, .T. ) ;
#294 = EDGE_CURVE ( 'NONE', #245, #245, #201, .T. ) ;
#295 = PERSON_AND_ORGANIZATION_ROLE ( 'creator' ) ;
#296 = AXIS2_PLACEMENT_3D ( 'NONE', #153, #61, #154 ) ;
#297 = DIRECTION ( 'NONE',  ( 1.000000000000000000, 0.0000000000000000000, -3.491481338843133355E-15 ) ) ;
#298 = AXIS2_PLACEMENT_3D ( 'NONE', #148, #237, #29 ) ;
#299 = CONICAL_SURFACE ( 'NONE', #208, 1.499999999999995559, 0.2617993877991426355 ) ;
#300 = FACE_OUTER_BOUND ( 'NONE', #55, .T. ) ;
#301 = EDGE_CURVE ( 'NONE', #132, #132, #89, .T. ) ;
#302 = ORIENTED_EDGE ( 'NONE', *, *, #262, .F. ) ;
#303 = ORIENTED_EDGE ( 'NONE', *, *, #13, .F. ) ;
ENDSEC;
END-ISO-10303-21;
