ISO-10303-21;
HEADER;
FILE_DESCRIPTION (( 'STEP AP203' ),
    '1' );
FILE_NAME ('995880.step',
    '2021-12-17T08:27:01',
    ( '' ),
    ( '' ),
    'SwSTEP 2.0',
    'SolidWorks 2019',
    '' );
FILE_SCHEMA (( 'CONFIG_CONTROL_DESIGN' ));
ENDSEC;

DATA;
#1 = EDGE_CURVE ( 'NONE', #48, #48, #177, .T. ) ;
#2 = FACE_OUTER_BOUND ( 'NONE', #131, .T. ) ;
#3 = PLANE ( 'NONE',  #19 ) ;
#4 = DIRECTION ( 'NONE',  ( -3.491481338843133355E-15, 0.0000000000000000000, -1.000000000000000000 ) ) ;
#5 = APPROVAL_DATE_TIME ( #229, #105 ) ;
#6 = CLOSED_SHELL ( 'NONE', ( #173, #21, #129, #298, #78, #138, #275 ) ) ;
#7 = DIRECTION ( 'NONE',  ( -1.000000000000000000, 0.0000000000000000000, 5.782411586589379332E-15 ) ) ;
#8 = COORDINATED_UNIVERSAL_TIME_OFFSET ( 1, 0, .AHEAD. ) ;
#9 = CARTESIAN_POINT ( 'NONE',  ( 8.030407079339206717E-15, 0.0000000000000000000, 2.299999999999999822 ) ) ;
#10 = FACE_OUTER_BOUND ( 'NONE', #107, .T. ) ;
#11 = CARTESIAN_POINT ( 'NONE',  ( -0.2631483474218499485, 0.0000000000000000000, 2.817638090205028867 ) ) ;
#12 = EDGE_LOOP ( 'NONE', ( #147 ) ) ;
#13 = PERSON_AND_ORGANIZATION_ROLE ( 'design_owner' ) ;
#14 = PLANE ( 'NONE',  #231 ) ;
#15 = APPROVAL_DATE_TIME ( #106, #169 ) ;
#16 = FACE_OUTER_BOUND ( 'NONE', #79, .T. ) ;
#17 = APPROVAL_STATUS ( 'not_yet_approved' ) ;
#18 = CONICAL_SURFACE ( 'NONE', #283, 0.1949999999999997846, 0.5235987755983042558 ) ;
#19 = AXIS2_PLACEMENT_3D ( 'NONE', #87, #189, #144 ) ;
#20 = ADVANCED_FACE ( 'NONE', ( #16, #153 ), #55, .T. ) ;
#21 = ADVANCED_FACE ( 'NONE', ( #246, #266 ), #198, .T. ) ;
#22 = FACE_BOUND ( 'NONE', #133, .T. ) ;
#23 = CIRCLE ( 'NONE', #182, 0.1950000000000000344 ) ;
#24 = CARTESIAN_POINT ( 'NONE',  ( 2.806986231917430629E-16, 0.0000000000000000000, 0.08039528095680718855 ) ) ;
#25 = DIRECTION ( 'NONE',  ( -1.000000000000000000, 0.0000000000000000000, 3.491481338843133355E-15 ) ) ;
#26 = PLANE ( 'NONE',  #36 ) ;
#27 = VERTEX_POINT ( 'NONE', #291 ) ;
#28 = ORGANIZATION ( 'UNSPECIFIED', 'UNSPECIFIED', '' ) ;
#29 = DIRECTION ( 'NONE',  ( 1.000000000000000000, 0.0000000000000000000, -3.497426362856466501E-15 ) ) ;
#30 =( LENGTH_UNIT ( ) NAMED_UNIT ( * ) SI_UNIT ( .MILLI., .METRE. ) );
#31 = EDGE_LOOP ( 'NONE', ( #201 ) ) ;
#32 = ADVANCED_FACE ( 'NONE', ( #295, #57 ), #18, .T. ) ;
#33 = DIRECTION ( 'NONE',  ( -3.491481338843133355E-15, 0.0000000000000000000, -1.000000000000000000 ) ) ;
#34 = CARTESIAN_POINT ( 'NONE',  ( -0.3099999999999997202, 0.0000000000000000000, 0.06639528095680828634 ) ) ;
#35 = EDGE_LOOP ( 'NONE', ( #97 ) ) ;
#36 = AXIS2_PLACEMENT_3D ( 'NONE', #139, #259, #141 ) ;
#37 = PLANE ( 'NONE',  #195 ) ;
#38 = PERSON_AND_ORGANIZATION_ROLE ( 'creator' ) ;
#39 = EDGE_LOOP ( 'NONE', ( #114 ) ) ;
#40 = APPROVAL_ROLE ( '' ) ;
#41 = APPROVAL_STATUS ( 'not_yet_approved' ) ;
#42 = CONICAL_SURFACE ( 'NONE', #238, 1.499999999999995559, 0.2617993877991427465 ) ;
#43 = EDGE_LOOP ( 'NONE', ( #62 ) ) ;
#44 = CC_DESIGN_PERSON_AND_ORGANIZATION_ASSIGNMENT ( #258, #13, ( #228 ) ) ;
#45 = DIRECTION ( 'NONE',  ( -3.491481338843133355E-15, 0.0000000000000000000, -1.000000000000000000 ) ) ;
#46 = AXIS2_PLACEMENT_3D ( 'NONE', #257, #232, #233 ) ;
#47 = DIRECTION ( 'NONE',  ( -3.491481338843133355E-15, 0.0000000000000000000, -1.000000000000000000 ) ) ;
#48 = VERTEX_POINT ( 'NONE', #69 ) ;
#49 = APPROVAL ( #41, 'UNSPECIFIED' ) ;
#50 = CYLINDRICAL_SURFACE ( 'NONE', #99, 1.499999999999995337 ) ;
#51 = VERTEX_POINT ( 'NONE', #214 ) ;
#52 = FACE_BOUND ( 'NONE', #155, .T. ) ;
#53 = ADVANCED_FACE ( 'NONE', ( #245 ), #37, .T. ) ;
#54 = MECHANICAL_CONTEXT ( 'NONE', #282, 'mechanical' ) ;
#55 = CYLINDRICAL_SURFACE ( 'NONE', #186, 0.3099999999999999423 ) ;
#56 = DIRECTION ( 'NONE',  ( 1.000000000000000000, 0.0000000000000000000, -3.469446951953624444E-15 ) ) ;
#57 = FACE_BOUND ( 'NONE', #222, .T. ) ;
#58 = ORIENTED_EDGE ( 'NONE', *, *, #215, .F. ) ;
#59 = AXIS2_PLACEMENT_3D ( 'NONE', #265, #93, #98 ) ;
#60 = CC_DESIGN_APPROVAL ( #169, ( #91 ) ) ;
#61 = DATE_AND_TIME ( #269, #113 ) ;
#62 = ORIENTED_EDGE ( 'NONE', *, *, #132, .T. ) ;
#63 = DESIGN_CONTEXT ( 'detailed design', #137, 'design' ) ;
#64 = AXIS2_PLACEMENT_3D ( 'NONE', #261, #286, #165 ) ;
#65 = DIRECTION ( 'NONE',  ( 3.491481338843133355E-15, 0.0000000000000000000, 1.000000000000000000 ) ) ;
#66 = FACE_OUTER_BOUND ( 'NONE', #31, .T. ) ;
#67 = AXIS2_PLACEMENT_3D ( 'NONE', #88, #86, #29 ) ;
#68 = DIRECTION ( 'NONE',  ( -1.000000000000000000, 0.0000000000000000000, 3.491481338843133355E-15 ) ) ;
#69 = CARTESIAN_POINT ( 'NONE',  ( -0.1949999999999988132, 0.0000000000000000000, 0.2795811238272266630 ) ) ;
#70 = DIRECTION ( 'NONE',  ( -1.000000000000000000, 0.0000000000000000000, 3.497426362856466107E-15 ) ) ;
#71 = DATE_AND_TIME ( #191, #121 ) ;
#72 = ADVANCED_FACE ( 'NONE', ( #10 ), #14, .F. ) ;
#73 = DIRECTION ( 'NONE',  ( -3.491481338843133355E-15, 0.0000000000000000000, -1.000000000000000000 ) ) ;
#74 = DIRECTION ( 'NONE',  ( -1.000000000000000000, 0.0000000000000000000, 3.614007241618352321E-15 ) ) ;
#75 = DIRECTION ( 'NONE',  ( -3.491481338843133355E-15, 0.0000000000000000000, -1.000000000000000000 ) ) ;
#76 = CARTESIAN_POINT ( 'NONE',  ( 9.761522765355507662E-16, 0.0000000000000000000, 0.2795811238272259969 ) ) ;
#77 = PERSON_AND_ORGANIZATION ( #188, #28 ) ;
#78 = ADVANCED_FACE ( 'NONE', ( #66, #95 ), #50, .T. ) ;
#79 = EDGE_LOOP ( 'NONE', ( #196 ) ) ;
#80 = PERSON_AND_ORGANIZATION ( #188, #28 ) ;
#81 = ORIENTED_EDGE ( 'NONE', *, *, #1, .T. ) ;
#82 = AXIS2_PLACEMENT_3D ( 'NONE', #211, #167, #7 ) ;
#83 = ORIENTED_EDGE ( 'NONE', *, *, #1, .F. ) ;
#84 = PRODUCT_DEFINITION_SHAPE ( 'NONE', 'NONE',  #270 ) ;
#85 = AXIS2_PLACEMENT_3D ( 'NONE', #9, #45, #207 ) ;
#86 = DIRECTION ( 'NONE',  ( 3.491481338843133355E-15, 0.0000000000000000000, 1.000000000000000000 ) ) ;
#87 = CARTESIAN_POINT ( 'NONE',  ( 1.326762908760390423E-13, 0.0000000000000000000, 38.00000000000000000 ) ) ;
#88 = CARTESIAN_POINT ( 'NONE',  ( 2.318178844479392373E-16, 0.0000000000000000000, 0.06639528095680720388 ) ) ;
#89 = PERSON_AND_ORGANIZATION ( #188, #28 ) ;
#90 = CIRCLE ( 'NONE', #157, 1.499999999999995337 ) ;
#91 = SECURITY_CLASSIFICATION ( '', '', #223 ) ;
#92 = DIRECTION ( 'NONE',  ( -1.000000000000000000, 0.0000000000000000000, 3.491481338843132961E-15 ) ) ;
#93 = DIRECTION ( 'NONE',  ( 0.0000000000000000000, 0.0000000000000000000, 1.000000000000000000 ) ) ;
#94 = EDGE_CURVE ( 'NONE', #242, #242, #23, .T. ) ;
#95 = FACE_OUTER_BOUND ( 'NONE', #205, .T. ) ;
#96 = CARTESIAN_POINT ( 'NONE',  ( -1.199999999999862732, 0.0000000000000000000, 38.00000000000000711 ) ) ;
#97 = ORIENTED_EDGE ( 'NONE', *, *, #237, .F. ) ;
#98 = DIRECTION ( 'NONE',  ( 1.000000000000000000, 0.0000000000000000000, 0.0000000000000000000 ) ) ;
#99 = AXIS2_PLACEMENT_3D ( 'NONE', #170, #230, #25 ) ;
#100 = ORIENTED_EDGE ( 'NONE', *, *, #225, .T. ) ;
#101 = APPROVAL_ROLE ( '' ) ;
#102 = ORIENTED_EDGE ( 'NONE', *, *, #237, .T. ) ;
#103 = APPROVAL_DATE_TIME ( #202, #49 ) ;
#104 = EDGE_LOOP ( 'NONE', ( #277 ) ) ;
#105 = APPROVAL ( #148, 'UNSPECIFIED' ) ;
#106 = DATE_AND_TIME ( #273, #204 ) ;
#107 = EDGE_LOOP ( 'NONE', ( #149 ) ) ;
#108 = AXIS2_PLACEMENT_3D ( 'NONE', #151, #75, #289 ) ;
#109 = COORDINATED_UNIVERSAL_TIME_OFFSET ( 1, 0, .AHEAD. ) ;
#110 = EDGE_CURVE ( 'NONE', #166, #166, #279, .T. ) ;
#111 = ORIENTED_EDGE ( 'NONE', *, *, #181, .F. ) ;
#112 = CC_DESIGN_APPROVAL ( #105, ( #270 ) ) ;
#113 = LOCAL_TIME ( 9, 27, 1.000000000000000000, #109 ) ;
#114 = ORIENTED_EDGE ( 'NONE', *, *, #110, .F. ) ;
#115 = PRODUCT_RELATED_PRODUCT_CATEGORY ( 'detail', '', ( #228 ) ) ;
#116 = CARTESIAN_POINT ( 'NONE',  ( -1.499999999999969358, 0.0000000000000000000, 7.433631299052289698 ) ) ;
#117 = FACE_OUTER_BOUND ( 'NONE', #39, .T. ) ;
#118 = LOCAL_TIME ( 9, 27, 1.000000000000000000, #135 ) ;
#119 = DIRECTION ( 'NONE',  ( -3.491481338843133355E-15, 0.0000000000000000000, -1.000000000000000000 ) ) ;
#120 = FACE_OUTER_BOUND ( 'NONE', #130, .T. ) ;
#121 = LOCAL_TIME ( 9, 27, 1.000000000000000000, #8 ) ;
#122 = FACE_OUTER_BOUND ( 'NONE', #104, .T. ) ;
#123 = DIRECTION ( 'NONE',  ( -3.491481338843133355E-15, 0.0000000000000000000, -1.000000000000000000 ) ) ;
#124 = CARTESIAN_POINT ( 'NONE',  ( 2.595438496048128897E-14, 0.0000000000000000000, 7.433631299052284369 ) ) ;
#125 = ORIENTED_EDGE ( 'NONE', *, *, #181, .T. ) ;
#126 = DIRECTION ( 'NONE',  ( 3.491481338843133355E-15, 0.0000000000000000000, 1.000000000000000000 ) ) ;
#127 = AXIS2_PLACEMENT_3D ( 'NONE', #253, #47, #234 ) ;
#128 = CARTESIAN_POINT ( 'NONE',  ( 9.761522765355507662E-16, 0.0000000000000000000, 0.2795811238272259969 ) ) ;
#129 = ADVANCED_FACE ( 'NONE', ( #117, #209 ), #160, .F. ) ;
#130 = EDGE_LOOP ( 'NONE', ( #220 ) ) ;
#131 = EDGE_LOOP ( 'NONE', ( #100 ) ) ;
#132 = EDGE_CURVE ( 'NONE', #143, #143, #254, .T. ) ;
#133 = EDGE_LOOP ( 'NONE', ( #302 ) ) ;
#134 = CIRCLE ( 'NONE', #82, 1.199999999999995293 ) ;
#135 = COORDINATED_UNIVERSAL_TIME_OFFSET ( 1, 0, .AHEAD. ) ;
#136 = MANIFOLD_SOLID_BREP ( 'Corps-Déplacer/Copier1[2]', #152 ) ;
#137 = APPLICATION_CONTEXT ( 'configuration controlled 3d designs of mechanical parts and assemblies' ) ;
#138 = ADVANCED_FACE ( 'NONE', ( #120, #22 ), #171, .T. ) ;
#139 = CARTESIAN_POINT ( 'NONE',  ( 9.761522765355507662E-16, 0.0000000000000000000, 0.2795811238272259969 ) ) ;
#140 = AXIS2_PLACEMENT_3D ( 'NONE', #24, #119, #70 ) ;
#141 = DIRECTION ( 'NONE',  ( 1.000000000000000000, 0.0000000000000000000, -3.491481338843133355E-15 ) ) ;
#142 = CARTESIAN_POINT ( 'NONE',  ( 8.030407079339206717E-15, 0.0000000000000000000, 2.299999999999999822 ) ) ;
#143 = VERTEX_POINT ( 'NONE', #116 ) ;
#144 = DIRECTION ( 'NONE',  ( -1.000000000000000000, 0.0000000000000000000, 3.491481338843133355E-15 ) ) ;
#145 = VERTEX_POINT ( 'NONE', #11 ) ;
#146 = AXIS2_PLACEMENT_3D ( 'NONE', #164, #192, #185 ) ;
#147 = ORIENTED_EDGE ( 'NONE', *, *, #110, .T. ) ;
#148 = APPROVAL_STATUS ( 'not_yet_approved' ) ;
#149 = ORIENTED_EDGE ( 'NONE', *, *, #94, .T. ) ;
#150 =( NAMED_UNIT ( * ) SI_UNIT ( $, .STERADIAN. ) SOLID_ANGLE_UNIT ( ) );
#151 = CARTESIAN_POINT ( 'NONE',  ( 0.0000000000000000000, 0.0000000000000000000, 0.0000000000000000000 ) ) ;
#152 = CLOSED_SHELL ( 'NONE', ( #72, #162, #20, #32, #53 ) ) ;
#153 = FACE_OUTER_BOUND ( 'NONE', #300, .T. ) ;
#154 = APPROVAL_ROLE ( '' ) ;
#155 = EDGE_LOOP ( 'NONE', ( #218 ) ) ;
#156 = COORDINATED_UNIVERSAL_TIME_OFFSET ( 1, 0, .AHEAD. ) ;
#157 = AXIS2_PLACEMENT_3D ( 'NONE', #184, #236, #288 ) ;
#158 = UNCERTAINTY_MEASURE_WITH_UNIT (LENGTH_MEASURE( 1.000000000000000082E-05 ), #30, 'distance_accuracy_value', 'NONE');
#159 = EDGE_CURVE ( 'NONE', #27, #27, #90, .T. ) ;
#160 = TOROIDAL_SURFACE ( 'NONE', #276, 2.194999999999999840, 2.000000000000000000 ) ;
#161 = APPLICATION_PROTOCOL_DEFINITION ( 'international standard', 'config_control_design', 1994, #137 ) ;
#162 = ADVANCED_FACE ( 'NONE', ( #52, #2 ), #180, .T. ) ;
#163 = CARTESIAN_POINT ( 'NONE',  ( 9.761522765355507662E-16, 0.0000000000000000000, 0.2795811238272259969 ) ) ;
#164 = CARTESIAN_POINT ( 'NONE',  ( 2.595438496048128897E-14, 0.0000000000000000000, 7.433631299052284369 ) ) ;
#165 = DIRECTION ( 'NONE',  ( -1.000000000000000000, 0.0000000000000000000, 5.782411586589379332E-15 ) ) ;
#166 = VERTEX_POINT ( 'NONE', #217 ) ;
#167 = DIRECTION ( 'NONE',  ( -3.491481338843133355E-15, 0.0000000000000000000, -1.000000000000000000 ) ) ;
#168 = DATE_TIME_ROLE ( 'creation_date' ) ;
#169 = APPROVAL ( #17, 'UNSPECIFIED' ) ;
#170 = CARTESIAN_POINT ( 'NONE',  ( 0.0000000000000000000, 0.0000000000000000000, 0.0000000000000000000 ) ) ;
#171 = CONICAL_SURFACE ( 'NONE', #64, 1.199999999999995293, 0.7853981633974453924 ) ;
#172 = EDGE_LOOP ( 'NONE', ( #248 ) ) ;
#173 = ADVANCED_FACE ( 'NONE', ( #122 ), #26, .F. ) ;
#174 = DIRECTION ( 'NONE',  ( -1.000000000000000000, 0.0000000000000000000, 3.491481338843132961E-15 ) ) ;
#175 = PERSON_AND_ORGANIZATION_ROLE ( 'classification_officer' ) ;
#176 = DIRECTION ( 'NONE',  ( 3.491481338843133355E-15, 0.0000000000000000000, 1.000000000000000000 ) ) ;
#177 = CIRCLE ( 'NONE', #212, 0.1949999999999997846 ) ;
#178 = COORDINATED_UNIVERSAL_TIME_OFFSET ( 1, 0, .AHEAD. ) ;
#179 = PERSON_AND_ORGANIZATION_ROLE ( 'design_supplier' ) ;
#180 = CONICAL_SURFACE ( 'NONE', #67, 0.3099999999999999423, 1.047197551196595855 ) ;
#181 = EDGE_CURVE ( 'NONE', #145, #145, #262, .T. ) ;
#182 = AXIS2_PLACEMENT_3D ( 'NONE', #213, #284, #92 ) ;
#183 = DIRECTION ( 'NONE',  ( 1.000000000000000000, 0.0000000000000000000, -3.491481338843133355E-15 ) ) ;
#184 = CARTESIAN_POINT ( 'NONE',  ( 1.316288464743861212E-13, 0.0000000000000000000, 37.69999999999999574 ) ) ;
#185 = DIRECTION ( 'NONE',  ( -1.000000000000000000, 0.0000000000000000000, 3.469446951953624444E-15 ) ) ;
#186 = AXIS2_PLACEMENT_3D ( 'NONE', #243, #292, #174 ) ;
#187 = PERSON_AND_ORGANIZATION_ROLE ( 'creator' ) ;
#188 = PERSON ( 'UNSPECIFIED', 'UNSPECIFIED', 'UNSPECIFIED', ('UNSPECIFIED'), ('UNSPECIFIED'), ('UNSPECIFIED') ) ;
#189 = DIRECTION ( 'NONE',  ( -3.491481338843133355E-15, 0.0000000000000000000, -1.000000000000000000 ) ) ;
#190 = CC_DESIGN_PERSON_AND_ORGANIZATION_ASSIGNMENT ( #80, #38, ( #290 ) ) ;
#191 = CALENDAR_DATE ( 2021, 17, 12 ) ;
#192 = DIRECTION ( 'NONE',  ( -3.491481338843133355E-15, 0.0000000000000000000, -1.000000000000000000 ) ) ;
#193 = EDGE_LOOP ( 'NONE', ( #111 ) ) ;
#194 = CALENDAR_DATE ( 2021, 17, 12 ) ;
#195 = AXIS2_PLACEMENT_3D ( 'NONE', #128, #176, #216 ) ;
#196 = ORIENTED_EDGE ( 'NONE', *, *, #225, .F. ) ;
#197 = DIRECTION ( 'NONE',  ( -1.000000000000000000, 0.0000000000000000000, 3.614007241618352321E-15 ) ) ;
#198 = CYLINDRICAL_SURFACE ( 'NONE', #108, 0.1949999999999997846 ) ;
#199 = CALENDAR_DATE ( 2021, 17, 12 ) ;
#200 = CC_DESIGN_APPROVAL ( #49, ( #290 ) ) ;
#201 = ORIENTED_EDGE ( 'NONE', *, *, #132, .F. ) ;
#202 = DATE_AND_TIME ( #199, #226 ) ;
#203 =( GEOMETRIC_REPRESENTATION_CONTEXT ( 3 ) GLOBAL_UNCERTAINTY_ASSIGNED_CONTEXT ( ( #158 ) ) GLOBAL_UNIT_ASSIGNED_CONTEXT ( ( #30, #206, #150 ) ) REPRESENTATION_CONTEXT ( 'NONE', 'WORKASPACE' ) );
#204 = LOCAL_TIME ( 9, 27, 1.000000000000000000, #178 ) ;
#205 = EDGE_LOOP ( 'NONE', ( #274 ) ) ;
#206 =( NAMED_UNIT ( * ) PLANE_ANGLE_UNIT ( ) SI_UNIT ( $, .RADIAN. ) );
#207 = DIRECTION ( 'NONE',  ( -1.000000000000000000, 0.0000000000000000000, 4.448008912761049131E-15 ) ) ;
#208 = FACE_OUTER_BOUND ( 'NONE', #172, .T. ) ;
#209 = FACE_OUTER_BOUND ( 'NONE', #264, .T. ) ;
#210 = CC_DESIGN_DATE_AND_TIME_ASSIGNMENT ( #71, #168, ( #270 ) ) ;
#211 = CARTESIAN_POINT ( 'NONE',  ( 1.326762908760390423E-13, 0.0000000000000000000, 38.00000000000000000 ) ) ;
#212 = AXIS2_PLACEMENT_3D ( 'NONE', #76, #33, #74 ) ;
#213 = CARTESIAN_POINT ( 'NONE',  ( 4.731839565957903391E-32, 0.0000000000000000000, 1.355252715606880543E-17 ) ) ;
#214 = CARTESIAN_POINT ( 'NONE',  ( -0.3099999999999997202, 0.0000000000000000000, 0.08039528095680828490 ) ) ;
#215 = EDGE_CURVE ( 'NONE', #244, #244, #252, .T. ) ;
#216 = DIRECTION ( 'NONE',  ( 1.000000000000000000, 0.0000000000000000000, -3.491481338843133355E-15 ) ) ;
#217 = CARTESIAN_POINT ( 'NONE',  ( -0.1949999999999917633, 0.0000000000000000000, 2.300000000000000711 ) ) ;
#218 = ORIENTED_EDGE ( 'NONE', *, *, #94, .F. ) ;
#219 = CIRCLE ( 'NONE', #140, 0.3099999999999999978 ) ;
#220 = ORIENTED_EDGE ( 'NONE', *, *, #159, .F. ) ;
#221 = PERSON_AND_ORGANIZATION ( #188, #28 ) ;
#222 = EDGE_LOOP ( 'NONE', ( #81 ) ) ;
#223 = SECURITY_CLASSIFICATION_LEVEL ( 'unclassified' ) ;
#224 = CC_DESIGN_DATE_AND_TIME_ASSIGNMENT ( #61, #267, ( #91 ) ) ;
#225 = EDGE_CURVE ( 'NONE', #285, #285, #301, .T. ) ;
#226 = LOCAL_TIME ( 9, 27, 1.000000000000000000, #156 ) ;
#227 = CC_DESIGN_SECURITY_CLASSIFICATION ( #91, ( #290 ) ) ;
#228 = PRODUCT ( '995880', '995880', '', ( #54 ) ) ;
#229 = DATE_AND_TIME ( #194, #118 ) ;
#230 = DIRECTION ( 'NONE',  ( -3.491481338843133355E-15, 0.0000000000000000000, -1.000000000000000000 ) ) ;
#231 = AXIS2_PLACEMENT_3D ( 'NONE', #294, #65, #183 ) ;
#232 = DIRECTION ( 'NONE',  ( -3.491481338843133355E-15, 0.0000000000000000000, -1.000000000000000000 ) ) ;
#233 = DIRECTION ( 'NONE',  ( -1.000000000000000000, 0.0000000000000000000, 3.296094185983672391E-15 ) ) ;
#234 = DIRECTION ( 'NONE',  ( -1.000000000000000000, 0.0000000000000000000, 3.497426362856466501E-15 ) ) ;
#235 = CARTESIAN_POINT ( 'NONE',  ( -0.1950000000000000344, 0.0000000000000000000, 6.943913882304798491E-16 ) ) ;
#236 = DIRECTION ( 'NONE',  ( -3.491481338843133355E-15, 0.0000000000000000000, -1.000000000000000000 ) ) ;
#237 = EDGE_CURVE ( 'NONE', #51, #51, #219, .T. ) ;
#238 = AXIS2_PLACEMENT_3D ( 'NONE', #124, #126, #56 ) ;
#239 = CARTESIAN_POINT ( 'NONE',  ( -0.1949999999999988132, 0.0000000000000000000, 0.2795811238272266630 ) ) ;
#240 = MANIFOLD_SOLID_BREP ( 'Corps-Déplacer/Copier1[1]', #6 ) ;
#241 = CARTESIAN_POINT ( 'NONE',  ( 9.761522765355507662E-16, 0.0000000000000000000, 0.2795811238272259969 ) ) ;
#242 = VERTEX_POINT ( 'NONE', #235 ) ;
#243 = CARTESIAN_POINT ( 'NONE',  ( 0.0000000000000000000, 0.0000000000000000000, 0.0000000000000000000 ) ) ;
#244 = VERTEX_POINT ( 'NONE', #239 ) ;
#245 = FACE_OUTER_BOUND ( 'NONE', #268, .T. ) ;
#246 = FACE_OUTER_BOUND ( 'NONE', #249, .T. ) ;
#247 = CC_DESIGN_PERSON_AND_ORGANIZATION_ASSIGNMENT ( #221, #175, ( #91 ) ) ;
#248 = ORIENTED_EDGE ( 'NONE', *, *, #250, .F. ) ;
#249 = EDGE_LOOP ( 'NONE', ( #58 ) ) ;
#250 = EDGE_CURVE ( 'NONE', #293, #293, #134, .T. ) ;
#251 = APPROVAL_PERSON_ORGANIZATION ( #287, #105, #101 ) ;
#252 = CIRCLE ( 'NONE', #271, 0.1949999999999997846 ) ;
#253 = CARTESIAN_POINT ( 'NONE',  ( 2.318178844479392373E-16, 0.0000000000000000000, 0.06639528095680720388 ) ) ;
#254 = CIRCLE ( 'NONE', #146, 1.499999999999995559 ) ;
#255 = FACE_OUTER_BOUND ( 'NONE', #43, .T. ) ;
#256 = ADVANCED_BREP_SHAPE_REPRESENTATION ( '995880', ( #240, #136, #59 ), #203 ) ;
#257 = CARTESIAN_POINT ( 'NONE',  ( 9.837730811564459943E-15, 0.0000000000000000000, 2.817638090205027979 ) ) ;
#258 = PERSON_AND_ORGANIZATION ( #188, #28 ) ;
#259 = DIRECTION ( 'NONE',  ( 3.491481338843133355E-15, 0.0000000000000000000, 1.000000000000000000 ) ) ;
#260 = PERSON_AND_ORGANIZATION ( #188, #28 ) ;
#261 = CARTESIAN_POINT ( 'NONE',  ( 1.326762908760390423E-13, 0.0000000000000000000, 38.00000000000000000 ) ) ;
#262 = CIRCLE ( 'NONE', #46, 0.2631483474218597740 ) ;
#263 = APPLICATION_PROTOCOL_DEFINITION ( 'international standard', 'config_control_design', 1994, #282 ) ;
#264 = EDGE_LOOP ( 'NONE', ( #125 ) ) ;
#265 = CARTESIAN_POINT ( 'NONE',  ( 0.0000000000000000000, 0.0000000000000000000, 0.0000000000000000000 ) ) ;
#266 = FACE_OUTER_BOUND ( 'NONE', #12, .T. ) ;
#267 = DATE_TIME_ROLE ( 'classification_date' ) ;
#268 = EDGE_LOOP ( 'NONE', ( #83 ) ) ;
#269 = CALENDAR_DATE ( 2021, 17, 12 ) ;
#270 = PRODUCT_DEFINITION ( 'UNKNOWN', '', #290, #63 ) ;
#271 = AXIS2_PLACEMENT_3D ( 'NONE', #163, #73, #280 ) ;
#272 = APPROVAL_PERSON_ORGANIZATION ( #77, #169, #40 ) ;
#273 = CALENDAR_DATE ( 2021, 17, 12 ) ;
#274 = ORIENTED_EDGE ( 'NONE', *, *, #159, .T. ) ;
#275 = ADVANCED_FACE ( 'NONE', ( #208 ), #3, .F. ) ;
#276 = AXIS2_PLACEMENT_3D ( 'NONE', #142, #4, #68 ) ;
#277 = ORIENTED_EDGE ( 'NONE', *, *, #215, .T. ) ;
#278 = CC_DESIGN_PERSON_AND_ORGANIZATION_ASSIGNMENT ( #89, #187, ( #270 ) ) ;
#279 = CIRCLE ( 'NONE', #85, 0.1949999999999997846 ) ;
#280 = DIRECTION ( 'NONE',  ( -1.000000000000000000, 0.0000000000000000000, 3.614007241618352321E-15 ) ) ;
#281 = FACE_BOUND ( 'NONE', #193, .T. ) ;
#282 = APPLICATION_CONTEXT ( 'configuration controlled 3d designs of mechanical parts and assemblies' ) ;
#283 = AXIS2_PLACEMENT_3D ( 'NONE', #241, #123, #197 ) ;
#284 = DIRECTION ( 'NONE',  ( -3.491481338843133355E-15, 0.0000000000000000000, -1.000000000000000000 ) ) ;
#285 = VERTEX_POINT ( 'NONE', #34 ) ;
#286 = DIRECTION ( 'NONE',  ( -3.491481338843133355E-15, 0.0000000000000000000, -1.000000000000000000 ) ) ;
#287 = PERSON_AND_ORGANIZATION ( #188, #28 ) ;
#288 = DIRECTION ( 'NONE',  ( -1.000000000000000000, 0.0000000000000000000, 4.625929269271500311E-15 ) ) ;
#289 = DIRECTION ( 'NONE',  ( -1.000000000000000000, 0.0000000000000000000, 3.491481338843132961E-15 ) ) ;
#290 = PRODUCT_DEFINITION_FORMATION_WITH_SPECIFIED_SOURCE ( 'ANY', '', #228, .NOT_KNOWN. ) ;
#291 = CARTESIAN_POINT ( 'NONE',  ( -1.499999999999863665, 0.0000000000000000000, 37.70000000000000284 ) ) ;
#292 = DIRECTION ( 'NONE',  ( -3.491481338843133355E-15, 0.0000000000000000000, -1.000000000000000000 ) ) ;
#293 = VERTEX_POINT ( 'NONE', #96 ) ;
#294 = CARTESIAN_POINT ( 'NONE',  ( 2.365919782978951696E-32, 0.0000000000000000000, 6.776263578034402713E-18 ) ) ;
#295 = FACE_OUTER_BOUND ( 'NONE', #35, .T. ) ;
#296 = SHAPE_DEFINITION_REPRESENTATION ( #84, #256 ) ;
#297 = APPROVAL_PERSON_ORGANIZATION ( #260, #49, #154 ) ;
#298 = ADVANCED_FACE ( 'NONE', ( #281, #255 ), #42, .T. ) ;
#299 = PERSON_AND_ORGANIZATION ( #188, #28 ) ;
#300 = EDGE_LOOP ( 'NONE', ( #102 ) ) ;
#301 = CIRCLE ( 'NONE', #127, 0.3099999999999999423 ) ;
#302 = ORIENTED_EDGE ( 'NONE', *, *, #250, .T. ) ;
#303 = CC_DESIGN_PERSON_AND_ORGANIZATION_ASSIGNMENT ( #299, #179, ( #290 ) ) ;
ENDSEC;
END-ISO-10303-21;
