ISO-10303-21;
HEADER;
FILE_DESCRIPTION (( 'STEP AP203' ),
    '1' );
FILE_NAME ('995725.step',
    '2021-12-17T08:27:01',
    ( '' ),
    ( '' ),
    'SwSTEP 2.0',
    'SolidWorks 2019',
    '' );
FILE_SCHEMA (( 'CONFIG_CONTROL_DESIGN' ));
ENDSEC;

DATA;
#1 = CARTESIAN_POINT ( 'NONE',  ( 2.035965767760157995E-16, 0.0000000000000000000, 0.05831237718815229787 ) ) ;
#2 = FACE_OUTER_BOUND ( 'NONE', #79, .T. ) ;
#3 = CONICAL_SURFACE ( 'NONE', #221, 1.199999999999995293, 0.7853981633974453924 ) ;
#4 = FACE_OUTER_BOUND ( 'NONE', #180, .T. ) ;
#5 = AXIS2_PLACEMENT_3D ( 'NONE', #7, #170, #122 ) ;
#6 = FACE_OUTER_BOUND ( 'NONE', #129, .T. ) ;
#7 = CARTESIAN_POINT ( 'NONE',  ( -1.182959891489475930E-31, 0.0000000000000000000, -3.388131789017201356E-17 ) ) ;
#8 = ADVANCED_FACE ( 'NONE', ( #302, #91 ), #94, .F. ) ;
#9 = CARTESIAN_POINT ( 'NONE',  ( 0.0000000000000000000, 0.0000000000000000000, 0.0000000000000000000 ) ) ;
#10 = CIRCLE ( 'NONE', #217, 0.2700000000000000733 ) ;
#11 = ORIENTED_EDGE ( 'NONE', *, *, #16, .T. ) ;
#12 = EDGE_LOOP ( 'NONE', ( #252 ) ) ;
#13 = PERSON_AND_ORGANIZATION ( #45, #39 ) ;
#14 = ORIENTED_EDGE ( 'NONE', *, *, #159, .T. ) ;
#15 = CALENDAR_DATE ( 2021, 17, 12 ) ;
#16 = EDGE_CURVE ( 'NONE', #102, #102, #119, .T. ) ;
#17 = AXIS2_PLACEMENT_3D ( 'NONE', #44, #212, #241 ) ;
#18 = PERSON_AND_ORGANIZATION_ROLE ( 'creator' ) ;
#19 = CARTESIAN_POINT ( 'NONE',  ( 1.326762908760390423E-13, 0.0000000000000000000, 38.00000000000000000 ) ) ;
#20 = DIRECTION ( 'NONE',  ( -1.000000000000000000, 0.0000000000000000000, 3.469446951953624444E-15 ) ) ;
#21 = CC_DESIGN_PERSON_AND_ORGANIZATION_ASSIGNMENT ( #110, #253, ( #273 ) ) ;
#22 = DATE_AND_TIME ( #158, #118 ) ;
#23 = DIRECTION ( 'NONE',  ( -1.000000000000000000, 0.0000000000000000000, 3.491481338843133355E-15 ) ) ;
#24 = DIRECTION ( 'NONE',  ( 3.491481338843133355E-15, 0.0000000000000000000, 1.000000000000000000 ) ) ;
#25 = ORIENTED_EDGE ( 'NONE', *, *, #288, .T. ) ;
#26 = APPROVAL_PERSON_ORGANIZATION ( #60, #190, #211 ) ;
#27 = APPROVAL ( #278, 'UNSPECIFIED' ) ;
#28 = DIRECTION ( 'NONE',  ( -1.000000000000000000, 0.0000000000000000000, 3.826595902890037134E-15 ) ) ;
#29 = AXIS2_PLACEMENT_3D ( 'NONE', #189, #24, #238 ) ;
#30 = PLANE ( 'NONE',  #5 ) ;
#31 = CARTESIAN_POINT ( 'NONE',  ( 8.502366600976236046E-16, 0.0000000000000000000, 0.2435174579450397059 ) ) ;
#32 = FACE_OUTER_BOUND ( 'NONE', #182, .T. ) ;
#33 = AXIS2_PLACEMENT_3D ( 'NONE', #236, #272, #28 ) ;
#34 = APPROVAL_DATE_TIME ( #301, #197 ) ;
#35 = ORIENTED_EDGE ( 'NONE', *, *, #16, .F. ) ;
#36 = CARTESIAN_POINT ( 'NONE',  ( 0.0000000000000000000, 0.0000000000000000000, 0.0000000000000000000 ) ) ;
#37 = ORIENTED_EDGE ( 'NONE', *, *, #187, .T. ) ;
#38 = PERSON_AND_ORGANIZATION_ROLE ( 'design_supplier' ) ;
#39 = ORGANIZATION ( 'UNSPECIFIED', 'UNSPECIFIED', '' ) ;
#40 = AXIS2_PLACEMENT_3D ( 'NONE', #193, #67, #215 ) ;
#41 = EDGE_CURVE ( 'NONE', #289, #289, #194, .T. ) ;
#42 = CARTESIAN_POINT ( 'NONE',  ( 2.453440296495976722E-14, 0.0000000000000000000, 7.026932291463712232 ) ) ;
#43 = PERSON_AND_ORGANIZATION ( #45, #39 ) ;
#44 = CARTESIAN_POINT ( 'NONE',  ( 8.502366600976236046E-16, 0.0000000000000000000, 0.2435174579450397059 ) ) ;
#45 = PERSON ( 'UNSPECIFIED', 'UNSPECIFIED', 'UNSPECIFIED', ('UNSPECIFIED'), ('UNSPECIFIED'), ('UNSPECIFIED') ) ;
#46 = ORIENTED_EDGE ( 'NONE', *, *, #216, .F. ) ;
#47 = CC_DESIGN_SECURITY_CLASSIFICATION ( #243, ( #103 ) ) ;
#48 = PLANE ( 'NONE',  #17 ) ;
#49 = DIRECTION ( 'NONE',  ( 1.000000000000000000, 0.0000000000000000000, -3.491481338843133355E-15 ) ) ;
#50 = AXIS2_PLACEMENT_3D ( 'NONE', #36, #297, #255 ) ;
#51 = EDGE_CURVE ( 'NONE', #218, #218, #219, .T. ) ;
#52 = CARTESIAN_POINT ( 'NONE',  ( -1.499999999999863665, 0.0000000000000000000, 37.70000000000000284 ) ) ;
#53 = FACE_OUTER_BOUND ( 'NONE', #249, .T. ) ;
#54 = CIRCLE ( 'NONE', #33, 0.1699999999999990408 ) ;
#55 = VERTEX_POINT ( 'NONE', #52 ) ;
#56 = FACE_OUTER_BOUND ( 'NONE', #225, .T. ) ;
#57 = DATE_TIME_ROLE ( 'classification_date' ) ;
#58 = ORIENTED_EDGE ( 'NONE', *, *, #41, .F. ) ;
#59 = APPROVAL_STATUS ( 'not_yet_approved' ) ;
#60 = PERSON_AND_ORGANIZATION ( #45, #39 ) ;
#61 = ORIENTED_EDGE ( 'NONE', *, *, #288, .F. ) ;
#62 = PRODUCT_DEFINITION ( 'UNKNOWN', '', #103, #248 ) ;
#63 = APPROVAL_DATE_TIME ( #152, #190 ) ;
#64 = DIRECTION ( 'NONE',  ( -1.000000000000000000, 0.0000000000000000000, 5.782411586589379332E-15 ) ) ;
#65 = CC_DESIGN_APPROVAL ( #197, ( #62 ) ) ;
#66 = DATE_AND_TIME ( #183, #168 ) ;
#67 = DIRECTION ( 'NONE',  ( -3.491481338843133355E-15, 0.0000000000000000000, -1.000000000000000000 ) ) ;
#68 = CARTESIAN_POINT ( 'NONE',  ( 1.326762908760390423E-13, 0.0000000000000000000, 38.00000000000000000 ) ) ;
#69 = FACE_OUTER_BOUND ( 'NONE', #176, .T. ) ;
#70 = CLOSED_SHELL ( 'NONE', ( #233, #96, #246, #131, #99 ) ) ;
#71 = FACE_OUTER_BOUND ( 'NONE', #153, .T. ) ;
#72 = VERTEX_POINT ( 'NONE', #244 ) ;
#73 = CYLINDRICAL_SURFACE ( 'NONE', #173, 1.499999999999995337 ) ;
#74 = VERTEX_POINT ( 'NONE', #175 ) ;
#75 = LOCAL_TIME ( 9, 27, 1.000000000000000000, #277 ) ;
#76 = CIRCLE ( 'NONE', #133, 1.499999999999995337 ) ;
#77 = EDGE_LOOP ( 'NONE', ( #58 ) ) ;
#78 = DIRECTION ( 'NONE',  ( -3.491481338843133355E-15, 0.0000000000000000000, -1.000000000000000000 ) ) ;
#79 = EDGE_LOOP ( 'NONE', ( #279 ) ) ;
#80 = PLANE ( 'NONE',  #82 ) ;
#81 = ORIENTED_EDGE ( 'NONE', *, *, #210, .F. ) ;
#82 = AXIS2_PLACEMENT_3D ( 'NONE', #31, #121, #49 ) ;
#83 = ORIENTED_EDGE ( 'NONE', *, *, #124, .T. ) ;
#84 = COORDINATED_UNIVERSAL_TIME_OFFSET ( 1, 0, .AHEAD. ) ;
#85 = COORDINATED_UNIVERSAL_TIME_OFFSET ( 1, 0, .AHEAD. ) ;
#86 = CARTESIAN_POINT ( 'NONE',  ( -2.365919782978951860E-31, 0.0000000000000000000, -6.776263578034402713E-17 ) ) ;
#87 = PERSON_AND_ORGANIZATION_ROLE ( 'creator' ) ;
#88 = EDGE_LOOP ( 'NONE', ( #214 ) ) ;
#89 = SECURITY_CLASSIFICATION_LEVEL ( 'unclassified' ) ;
#90 = ADVANCED_FACE ( 'NONE', ( #140, #2 ), #207, .T. ) ;
#91 = FACE_OUTER_BOUND ( 'NONE', #148, .T. ) ;
#92 = FACE_OUTER_BOUND ( 'NONE', #178, .T. ) ;
#93 = CIRCLE ( 'NONE', #138, 0.1699999999999990408 ) ;
#94 = TOROIDAL_SURFACE ( 'NONE', #245, 2.169999999999999041, 2.000000000000000000 ) ;
#95 = FACE_OUTER_BOUND ( 'NONE', #254, .T. ) ;
#96 = ADVANCED_FACE ( 'NONE', ( #261, #281 ), #232, .T. ) ;
#97 = PRODUCT_RELATED_PRODUCT_CATEGORY ( 'detail', '', ( #273 ) ) ;
#98 = CARTESIAN_POINT ( 'NONE',  ( 0.0000000000000000000, 0.0000000000000000000, 0.0000000000000000000 ) ) ;
#99 = ADVANCED_FACE ( 'NONE', ( #71 ), #48, .T. ) ;
#100 = CARTESIAN_POINT ( 'NONE',  ( -0.1699999999999982081, 0.0000000000000000000, 0.2435174579450402887 ) ) ;
#101 = EDGE_LOOP ( 'NONE', ( #151 ) ) ;
#102 = VERTEX_POINT ( 'NONE', #171 ) ;
#103 = PRODUCT_DEFINITION_FORMATION_WITH_SPECIFIED_SOURCE ( 'ANY', '', #273, .NOT_KNOWN. ) ;
#104 = CC_DESIGN_DATE_AND_TIME_ASSIGNMENT ( #22, #230, ( #62 ) ) ;
#105 = VERTEX_POINT ( 'NONE', #146 ) ;
#106 = EDGE_LOOP ( 'NONE', ( #14 ) ) ;
#107 = ORIENTED_EDGE ( 'NONE', *, *, #159, .F. ) ;
#108 = PERSON_AND_ORGANIZATION_ROLE ( 'classification_officer' ) ;
#109 = AXIS2_PLACEMENT_3D ( 'NONE', #9, #224, #223 ) ;
#110 = PERSON_AND_ORGANIZATION ( #45, #39 ) ;
#111 = DIRECTION ( 'NONE',  ( -1.000000000000000000, 0.0000000000000000000, 3.491481338843133355E-15 ) ) ;
#112 = PERSON_AND_ORGANIZATION ( #45, #39 ) ;
#113 = DIRECTION ( 'NONE',  ( -3.491481338843133355E-15, 0.0000000000000000000, -1.000000000000000000 ) ) ;
#114 = APPROVAL_STATUS ( 'not_yet_approved' ) ;
#115 = FACE_BOUND ( 'NONE', #101, .T. ) ;
#116 = DIRECTION ( 'NONE',  ( 1.000000000000000000, 0.0000000000000000000, -3.488520879062154404E-15 ) ) ;
#117 = DIRECTION ( 'NONE',  ( -1.000000000000000000, 0.0000000000000000000, 4.625929269271500311E-15 ) ) ;
#118 = LOCAL_TIME ( 9, 27, 1.000000000000000000, #213 ) ;
#119 = CIRCLE ( 'NONE', #263, 0.1690000000000000946 ) ;
#120 = AXIS2_PLACEMENT_3D ( 'NONE', #191, #259, #283 ) ;
#121 = DIRECTION ( 'NONE',  ( 3.491481338843133355E-15, 0.0000000000000000000, 1.000000000000000000 ) ) ;
#122 = DIRECTION ( 'NONE',  ( 1.000000000000000000, 0.0000000000000000000, -3.491481338843133355E-15 ) ) ;
#123 = DIRECTION ( 'NONE',  ( -1.000000000000000000, 0.0000000000000000000, 3.513618151573392962E-15 ) ) ;
#124 = EDGE_CURVE ( 'NONE', #55, #55, #76, .T. ) ;
#125 = DIRECTION ( 'NONE',  ( -1.000000000000000000, 0.0000000000000000000, 3.491481338843133355E-15 ) ) ;
#126 = ORIENTED_EDGE ( 'NONE', *, *, #41, .T. ) ;
#127 = ORIENTED_EDGE ( 'NONE', *, *, #51, .T. ) ;
#128 = PERSON_AND_ORGANIZATION ( #45, #39 ) ;
#129 = EDGE_LOOP ( 'NONE', ( #81 ) ) ;
#130 = COORDINATED_UNIVERSAL_TIME_OFFSET ( 1, 0, .AHEAD. ) ;
#131 = ADVANCED_FACE ( 'NONE', ( #92, #115 ), #257, .T. ) ;
#132 = AXIS2_PLACEMENT_3D ( 'NONE', #196, #293, #123 ) ;
#133 = AXIS2_PLACEMENT_3D ( 'NONE', #284, #298, #117 ) ;
#134 = CARTESIAN_POINT ( 'NONE',  ( 8.502366600976236046E-16, 0.0000000000000000000, 0.2435174579450397059 ) ) ;
#135 = DIRECTION ( 'NONE',  ( -3.491481338843133355E-15, 0.0000000000000000000, -1.000000000000000000 ) ) ;
#136 = APPROVAL_ROLE ( '' ) ;
#137 = CARTESIAN_POINT ( 'NONE',  ( 1.326762908760390423E-13, 0.0000000000000000000, 38.00000000000000000 ) ) ;
#138 = AXIS2_PLACEMENT_3D ( 'NONE', #134, #139, #157 ) ;
#139 = DIRECTION ( 'NONE',  ( -3.491481338843133355E-15, 0.0000000000000000000, -1.000000000000000000 ) ) ;
#140 = FACE_BOUND ( 'NONE', #77, .T. ) ;
#141 = CARTESIAN_POINT ( 'NONE',  ( -0.1699999999999927403, 0.0000000000000000000, 1.799999722222201060 ) ) ;
#142 = AXIS2_PLACEMENT_3D ( 'NONE', #222, #78, #247 ) ;
#143 = ADVANCED_FACE ( 'NONE', ( #286, #265 ), #3, .T. ) ;
#144 = FACE_OUTER_BOUND ( 'NONE', #106, .T. ) ;
#145 = CIRCLE ( 'NONE', #142, 0.1699999999999990408 ) ;
#146 = CARTESIAN_POINT ( 'NONE',  ( -0.2699999999999997957, 0.0000000000000000000, 0.07031237718815323834 ) ) ;
#147 = UNCERTAINTY_MEASURE_WITH_UNIT (LENGTH_MEASURE( 1.000000000000000082E-05 ), #250, 'distance_accuracy_value', 'NONE');
#148 = EDGE_LOOP ( 'NONE', ( #126 ) ) ;
#149 = PRODUCT_DEFINITION_SHAPE ( 'NONE', 'NONE',  #62 ) ;
#150 = VERTEX_POINT ( 'NONE', #100 ) ;
#151 = ORIENTED_EDGE ( 'NONE', *, *, #299, .T. ) ;
#152 = DATE_AND_TIME ( #208, #201 ) ;
#153 = EDGE_LOOP ( 'NONE', ( #276 ) ) ;
#154 = APPLICATION_PROTOCOL_DEFINITION ( 'international standard', 'config_control_design', 1994, #204 ) ;
#155 = EDGE_LOOP ( 'NONE', ( #46 ) ) ;
#156 = ORIENTED_EDGE ( 'NONE', *, *, #51, .F. ) ;
#157 = DIRECTION ( 'NONE',  ( -1.000000000000000000, 0.0000000000000000000, 3.507712910982533974E-15 ) ) ;
#158 = CALENDAR_DATE ( 2021, 17, 12 ) ;
#159 = EDGE_CURVE ( 'NONE', #150, #150, #93, .T. ) ;
#160 = DIRECTION ( 'NONE',  ( -3.491481338843133355E-15, 0.0000000000000000000, -1.000000000000000000 ) ) ;
#161 = DIRECTION ( 'NONE',  ( -3.491481338843133355E-15, 0.0000000000000000000, -1.000000000000000000 ) ) ;
#162 = APPROVAL_PERSON_ORGANIZATION ( #43, #197, #206 ) ;
#163 = PLANE ( 'NONE',  #231 ) ;
#164 = AXIS2_PLACEMENT_3D ( 'NONE', #68, #113, #186 ) ;
#165 = DIRECTION ( 'NONE',  ( 3.491481338843133355E-15, 0.0000000000000000000, 1.000000000000000000 ) ) ;
#166 = MANIFOLD_SOLID_BREP ( 'Corps-Déplacer/Copier1[1]', #174 ) ;
#167 = MANIFOLD_SOLID_BREP ( 'Corps-Déplacer/Copier1[2]', #70 ) ;
#168 = LOCAL_TIME ( 9, 27, 1.000000000000000000, #84 ) ;
#169 = CC_DESIGN_PERSON_AND_ORGANIZATION_ASSIGNMENT ( #112, #87, ( #103 ) ) ;
#170 = DIRECTION ( 'NONE',  ( 3.491481338843133355E-15, 0.0000000000000000000, 1.000000000000000000 ) ) ;
#171 = CARTESIAN_POINT ( 'NONE',  ( -0.1690000000000000946, 0.0000000000000000000, 5.222977104841458728E-16 ) ) ;
#172 = APPLICATION_CONTEXT ( 'configuration controlled 3d designs of mechanical parts and assemblies' ) ;
#173 = AXIS2_PLACEMENT_3D ( 'NONE', #98, #198, #125 ) ;
#174 = CLOSED_SHELL ( 'NONE', ( #251, #240, #8, #90, #292, #143, #195 ) ) ;
#175 = CARTESIAN_POINT ( 'NONE',  ( -0.1699999999999982081, 0.0000000000000000000, 0.2435174579450402887 ) ) ;
#176 = EDGE_LOOP ( 'NONE', ( #156 ) ) ;
#177 = VERTEX_POINT ( 'NONE', #141 ) ;
#178 = EDGE_LOOP ( 'NONE', ( #61 ) ) ;
#179 = CARTESIAN_POINT ( 'NONE',  ( 0.0000000000000000000, 0.0000000000000000000, 0.0000000000000000000 ) ) ;
#180 = EDGE_LOOP ( 'NONE', ( #83 ) ) ;
#181 = CC_DESIGN_APPROVAL ( #190, ( #243 ) ) ;
#182 = EDGE_LOOP ( 'NONE', ( #107 ) ) ;
#183 = CALENDAR_DATE ( 2021, 17, 12 ) ;
#184 = CC_DESIGN_DATE_AND_TIME_ASSIGNMENT ( #66, #57, ( #243 ) ) ;
#185 = MECHANICAL_CONTEXT ( 'NONE', #172, 'mechanical' ) ;
#186 = DIRECTION ( 'NONE',  ( -1.000000000000000000, 0.0000000000000000000, 5.782411586589379332E-15 ) ) ;
#187 = EDGE_CURVE ( 'NONE', #290, #290, #10, .T. ) ;
#188 = CIRCLE ( 'NONE', #226, 1.499999999999995559 ) ;
#189 = CARTESIAN_POINT ( 'NONE',  ( 2.453440296495976722E-14, 0.0000000000000000000, 7.026932291463712232 ) ) ;
#190 = APPROVAL ( #59, 'UNSPECIFIED' ) ;
#191 = CARTESIAN_POINT ( 'NONE',  ( 8.091989172286890531E-15, 0.0000000000000000000, 2.317637812427228994 ) ) ;
#192 = CARTESIAN_POINT ( 'NONE',  ( 6.284665440061636517E-15, 0.0000000000000000000, 1.799999722222200393 ) ) ;
#193 = CARTESIAN_POINT ( 'NONE',  ( 8.502366600976236046E-16, 0.0000000000000000000, 0.2435174579450397059 ) ) ;
#194 = CIRCLE ( 'NONE', #120, 0.2381483474218588359 ) ;
#195 = ADVANCED_FACE ( 'NONE', ( #69 ), #163, .F. ) ;
#196 = CARTESIAN_POINT ( 'NONE',  ( 2.454943528421333396E-16, 0.0000000000000000000, 0.07031237718815229465 ) ) ;
#197 = APPROVAL ( #114, 'UNSPECIFIED' ) ;
#198 = DIRECTION ( 'NONE',  ( -3.491481338843133355E-15, 0.0000000000000000000, -1.000000000000000000 ) ) ;
#199 = DIRECTION ( 'NONE',  ( -1.000000000000000000, 0.0000000000000000000, 3.491481338843132566E-15 ) ) ;
#200 = EDGE_LOOP ( 'NONE', ( #35 ) ) ;
#201 = LOCAL_TIME ( 9, 27, 1.000000000000000000, #85 ) ;
#202 = CYLINDRICAL_SURFACE ( 'NONE', #109, 0.1699999999999990408 ) ;
#203 = ADVANCED_BREP_SHAPE_REPRESENTATION ( '995725', ( #166, #167, #50 ), #266 ) ;
#204 = APPLICATION_CONTEXT ( 'configuration controlled 3d designs of mechanical parts and assemblies' ) ;
#205 = FACE_OUTER_BOUND ( 'NONE', #12, .T. ) ;
#206 = APPROVAL_ROLE ( '' ) ;
#207 = CONICAL_SURFACE ( 'NONE', #29, 1.499999999999995559, 0.2617993877991426910 ) ;
#208 = CALENDAR_DATE ( 2021, 17, 12 ) ;
#209 = DIRECTION ( 'NONE',  ( -3.491481338843133355E-15, 0.0000000000000000000, -1.000000000000000000 ) ) ;
#210 = EDGE_CURVE ( 'NONE', #72, #72, #188, .T. ) ;
#211 = APPROVAL_ROLE ( '' ) ;
#212 = DIRECTION ( 'NONE',  ( 3.491481338843133355E-15, 0.0000000000000000000, 1.000000000000000000 ) ) ;
#213 = COORDINATED_UNIVERSAL_TIME_OFFSET ( 1, 0, .AHEAD. ) ;
#214 = ORIENTED_EDGE ( 'NONE', *, *, #124, .F. ) ;
#215 = DIRECTION ( 'NONE',  ( -1.000000000000000000, 0.0000000000000000000, 3.507712910982533974E-15 ) ) ;
#216 = EDGE_CURVE ( 'NONE', #177, #177, #54, .T. ) ;
#217 = AXIS2_PLACEMENT_3D ( 'NONE', #1, #234, #239 ) ;
#218 = VERTEX_POINT ( 'NONE', #268 ) ;
#219 = CIRCLE ( 'NONE', #164, 1.199999999999995293 ) ;
#220 = CC_DESIGN_PERSON_AND_ORGANIZATION_ASSIGNMENT ( #275, #18, ( #62 ) ) ;
#221 = AXIS2_PLACEMENT_3D ( 'NONE', #137, #161, #64 ) ;
#222 = CARTESIAN_POINT ( 'NONE',  ( 8.502366600976236046E-16, 0.0000000000000000000, 0.2435174579450397059 ) ) ;
#223 = DIRECTION ( 'NONE',  ( -1.000000000000000000, 0.0000000000000000000, 3.491481338843133750E-15 ) ) ;
#224 = DIRECTION ( 'NONE',  ( -3.491481338843133355E-15, 0.0000000000000000000, -1.000000000000000000 ) ) ;
#225 = EDGE_LOOP ( 'NONE', ( #25 ) ) ;
#226 = AXIS2_PLACEMENT_3D ( 'NONE', #42, #135, #20 ) ;
#227 = CARTESIAN_POINT ( 'NONE',  ( -0.2381483474218507312, 0.0000000000000000000, 2.317637812427229438 ) ) ;
#228 =( NAMED_UNIT ( * ) SI_UNIT ( $, .STERADIAN. ) SOLID_ANGLE_UNIT ( ) );
#229 = EDGE_LOOP ( 'NONE', ( #127 ) ) ;
#230 = DATE_TIME_ROLE ( 'creation_date' ) ;
#231 = AXIS2_PLACEMENT_3D ( 'NONE', #19, #264, #111 ) ;
#232 = CONICAL_SURFACE ( 'NONE', #270, 0.2700000000000000733, 1.047197551196596299 ) ;
#233 = ADVANCED_FACE ( 'NONE', ( #53 ), #30, .F. ) ;
#234 = DIRECTION ( 'NONE',  ( -3.491481338843133355E-15, 0.0000000000000000000, -1.000000000000000000 ) ) ;
#235 = DATE_AND_TIME ( #237, #291 ) ;
#236 = CARTESIAN_POINT ( 'NONE',  ( 6.284665440061636517E-15, 0.0000000000000000000, 1.799999722222200393 ) ) ;
#237 = CALENDAR_DATE ( 2021, 17, 12 ) ;
#238 = DIRECTION ( 'NONE',  ( 1.000000000000000000, 0.0000000000000000000, -3.469446951953624444E-15 ) ) ;
#239 = DIRECTION ( 'NONE',  ( -1.000000000000000000, 0.0000000000000000000, 3.488520879062154404E-15 ) ) ;
#240 = ADVANCED_FACE ( 'NONE', ( #32, #205 ), #202, .T. ) ;
#241 = DIRECTION ( 'NONE',  ( 1.000000000000000000, 0.0000000000000000000, -3.491481338843133355E-15 ) ) ;
#242 =( NAMED_UNIT ( * ) PLANE_ANGLE_UNIT ( ) SI_UNIT ( $, .RADIAN. ) );
#243 = SECURITY_CLASSIFICATION ( '', '', #89 ) ;
#244 = CARTESIAN_POINT ( 'NONE',  ( -1.499999999999970912, 0.0000000000000000000, 7.026932291463717561 ) ) ;
#245 = AXIS2_PLACEMENT_3D ( 'NONE', #192, #160, #260 ) ;
#246 = ADVANCED_FACE ( 'NONE', ( #95, #56 ), #267, .T. ) ;
#247 = DIRECTION ( 'NONE',  ( -1.000000000000000000, 0.0000000000000000000, 3.507712910982533974E-15 ) ) ;
#248 = DESIGN_CONTEXT ( 'detailed design', #204, 'design' ) ;
#249 = EDGE_LOOP ( 'NONE', ( #11 ) ) ;
#250 =( LENGTH_UNIT ( ) NAMED_UNIT ( * ) SI_UNIT ( .MILLI., .METRE. ) );
#251 = ADVANCED_FACE ( 'NONE', ( #144 ), #80, .F. ) ;
#252 = ORIENTED_EDGE ( 'NONE', *, *, #216, .T. ) ;
#253 = PERSON_AND_ORGANIZATION_ROLE ( 'design_owner' ) ;
#254 = EDGE_LOOP ( 'NONE', ( #274 ) ) ;
#255 = DIRECTION ( 'NONE',  ( 1.000000000000000000, 0.0000000000000000000, 0.0000000000000000000 ) ) ;
#256 = APPROVAL_PERSON_ORGANIZATION ( #128, #27, #136 ) ;
#257 = CONICAL_SURFACE ( 'NONE', #40, 0.1699999999999990408, 0.5235987755983041447 ) ;
#258 = PERSON_AND_ORGANIZATION ( #45, #39 ) ;
#259 = DIRECTION ( 'NONE',  ( -3.491481338843133355E-15, 0.0000000000000000000, -1.000000000000000000 ) ) ;
#260 = DIRECTION ( 'NONE',  ( -1.000000000000000000, 0.0000000000000000000, 3.491481338843132961E-15 ) ) ;
#261 = FACE_BOUND ( 'NONE', #200, .T. ) ;
#262 = CC_DESIGN_PERSON_AND_ORGANIZATION_ASSIGNMENT ( #258, #38, ( #103 ) ) ;
#263 = AXIS2_PLACEMENT_3D ( 'NONE', #86, #209, #23 ) ;
#264 = DIRECTION ( 'NONE',  ( -3.491481338843133355E-15, 0.0000000000000000000, -1.000000000000000000 ) ) ;
#265 = FACE_BOUND ( 'NONE', #229, .T. ) ;
#266 =( GEOMETRIC_REPRESENTATION_CONTEXT ( 3 ) GLOBAL_UNCERTAINTY_ASSIGNED_CONTEXT ( ( #147 ) ) GLOBAL_UNIT_ASSIGNED_CONTEXT ( ( #250, #242, #228 ) ) REPRESENTATION_CONTEXT ( 'NONE', 'WORKASPACE' ) );
#267 = CYLINDRICAL_SURFACE ( 'NONE', #269, 0.2700000000000000733 ) ;
#268 = CARTESIAN_POINT ( 'NONE',  ( -1.199999999999862732, 0.0000000000000000000, 38.00000000000000711 ) ) ;
#269 = AXIS2_PLACEMENT_3D ( 'NONE', #179, #271, #199 ) ;
#270 = AXIS2_PLACEMENT_3D ( 'NONE', #282, #165, #116 ) ;
#271 = DIRECTION ( 'NONE',  ( -3.491481338843133355E-15, 0.0000000000000000000, -1.000000000000000000 ) ) ;
#272 = DIRECTION ( 'NONE',  ( -3.491481338843133355E-15, 0.0000000000000000000, -1.000000000000000000 ) ) ;
#273 = PRODUCT ( '995725', '995725', '', ( #185 ) ) ;
#274 = ORIENTED_EDGE ( 'NONE', *, *, #187, .F. ) ;
#275 = PERSON_AND_ORGANIZATION ( #45, #39 ) ;
#276 = ORIENTED_EDGE ( 'NONE', *, *, #299, .F. ) ;
#277 = COORDINATED_UNIVERSAL_TIME_OFFSET ( 1, 0, .AHEAD. ) ;
#278 = APPROVAL_STATUS ( 'not_yet_approved' ) ;
#279 = ORIENTED_EDGE ( 'NONE', *, *, #210, .T. ) ;
#280 = APPROVAL_DATE_TIME ( #235, #27 ) ;
#281 = FACE_OUTER_BOUND ( 'NONE', #294, .T. ) ;
#282 = CARTESIAN_POINT ( 'NONE',  ( 2.035965767760157995E-16, 0.0000000000000000000, 0.05831237718815229787 ) ) ;
#283 = DIRECTION ( 'NONE',  ( -1.000000000000000000, 0.0000000000000000000, 3.642106894203840651E-15 ) ) ;
#284 = CARTESIAN_POINT ( 'NONE',  ( 1.316288464743861212E-13, 0.0000000000000000000, 37.69999999999999574 ) ) ;
#285 = CIRCLE ( 'NONE', #132, 0.2700000000000000733 ) ;
#286 = FACE_OUTER_BOUND ( 'NONE', #88, .T. ) ;
#287 = CARTESIAN_POINT ( 'NONE',  ( -0.2699999999999998512, 0.0000000000000000000, 0.05831237718815324156 ) ) ;
#288 = EDGE_CURVE ( 'NONE', #105, #105, #285, .T. ) ;
#289 = VERTEX_POINT ( 'NONE', #227 ) ;
#290 = VERTEX_POINT ( 'NONE', #287 ) ;
#291 = LOCAL_TIME ( 9, 27, 1.000000000000000000, #130 ) ;
#292 = ADVANCED_FACE ( 'NONE', ( #6, #4 ), #73, .T. ) ;
#293 = DIRECTION ( 'NONE',  ( -3.491481338843133355E-15, 0.0000000000000000000, -1.000000000000000000 ) ) ;
#294 = EDGE_LOOP ( 'NONE', ( #37 ) ) ;
#295 = APPLICATION_PROTOCOL_DEFINITION ( 'international standard', 'config_control_design', 1994, #172 ) ;
#296 = SHAPE_DEFINITION_REPRESENTATION ( #149, #203 ) ;
#297 = DIRECTION ( 'NONE',  ( 0.0000000000000000000, 0.0000000000000000000, 1.000000000000000000 ) ) ;
#298 = DIRECTION ( 'NONE',  ( -3.491481338843133355E-15, 0.0000000000000000000, -1.000000000000000000 ) ) ;
#299 = EDGE_CURVE ( 'NONE', #74, #74, #145, .T. ) ;
#300 = CC_DESIGN_APPROVAL ( #27, ( #103 ) ) ;
#301 = DATE_AND_TIME ( #15, #75 ) ;
#302 = FACE_OUTER_BOUND ( 'NONE', #155, .T. ) ;
#303 = CC_DESIGN_PERSON_AND_ORGANIZATION_ASSIGNMENT ( #13, #108, ( #243 ) ) ;
ENDSEC;
END-ISO-10303-21;
