ISO-10303-21;
HEADER;
FILE_DESCRIPTION (( 'STEP AP203' ),
    '1' );
FILE_NAME ('993718.step',
    '2021-11-30T14:23:07',
    ( '' ),
    ( '' ),
    'SwSTEP 2.0',
    'SolidWorks 2019',
    '' );
FILE_SCHEMA (( 'CONFIG_CONTROL_DESIGN' ));
ENDSEC;

DATA;
#1 = DIRECTION ( 'NONE',  ( 4.275831445896958607E-31, 1.000000000000000000, 1.224646799147353207E-16 ) ) ;
#2 = CARTESIAN_POINT ( 'NONE',  ( 7.681258945454893382E-14, -2.694222958124176809E-15, 22.00000000000000000 ) ) ;
#3 = PRODUCT_DEFINITION_FORMATION_WITH_SPECIFIED_SOURCE ( 'ANY', '', #243, .NOT_KNOWN. ) ;
#4 = CARTESIAN_POINT ( 'NONE',  ( 0.0000000000000000000, 0.0000000000000000000, 0.0000000000000000000 ) ) ;
#5 = APPLICATION_CONTEXT ( 'configuration controlled 3d designs of mechanical parts and assemblies' ) ;
#6 = VERTEX_POINT ( 'NONE', #86 ) ;
#7 = APPROVAL ( #125, 'UNSPECIFIED' ) ;
#8 = COORDINATED_UNIVERSAL_TIME_OFFSET ( 1, 0, .AHEAD. ) ;
#9 = AXIS2_PLACEMENT_3D ( 'NONE', #81, #47, #171 ) ;
#10 = CONICAL_SURFACE ( 'NONE', #179, 1.400000000000001021, 0.7853981633974437271 ) ;
#11 = VERTEX_POINT ( 'NONE', #102 ) ;
#12 = AXIS2_PLACEMENT_3D ( 'NONE', #193, #80, #223 ) ;
#13 = PERSON_AND_ORGANIZATION ( #46, #88 ) ;
#14 = APPLICATION_CONTEXT ( 'configuration controlled 3d designs of mechanical parts and assemblies' ) ;
#15 = EDGE_CURVE ( 'NONE', #11, #11, #19, .T. ) ;
#16 = EDGE_LOOP ( 'NONE', ( #153 ) ) ;
#17 = CALENDAR_DATE ( 2021, 30, 11 ) ;
#18 = EDGE_LOOP ( 'NONE', ( #151 ) ) ;
#19 = CIRCLE ( 'NONE', #134, 2.024000000000000465 ) ;
#20 = ORIENTED_EDGE ( 'NONE', *, *, #38, .T. ) ;
#21 = DIRECTION ( 'NONE',  ( -3.491481338843133355E-15, 1.224646799147353207E-16, -1.000000000000000000 ) ) ;
#22 = CLOSED_SHELL ( 'NONE', ( #100, #89, #195, #232 ) ) ;
#23 = FACE_OUTER_BOUND ( 'NONE', #74, .T. ) ;
#24 = PRODUCT_DEFINITION ( 'UNKNOWN', '', #3, #115 ) ;
#25 = DIRECTION ( 'NONE',  ( -3.491481338843133355E-15, 1.224646799147353207E-16, -1.000000000000000000 ) ) ;
#26 = DIRECTION ( 'NONE',  ( 3.806185660844343740E-31, 1.000000000000000000, 1.339182525303243150E-16 ) ) ;
#27 = CYLINDRICAL_SURFACE ( 'NONE', #138, 1.749999999999998002 ) ;
#28 = LOCAL_TIME ( 15, 23, 7.000000000000000000, #8 ) ;
#29 = APPROVAL_STATUS ( 'not_yet_approved' ) ;
#30 = CALENDAR_DATE ( 2021, 30, 11 ) ;
#31 = AXIS2_PLACEMENT_3D ( 'NONE', #98, #44, #137 ) ;
#32 = VERTEX_POINT ( 'NONE', #107 ) ;
#33 = PRODUCT_RELATED_PRODUCT_CATEGORY ( 'detail', '', ( #243 ) ) ;
#34 = SHAPE_DEFINITION_REPRESENTATION ( #55, #112 ) ;
#35 = APPROVAL ( #90, 'UNSPECIFIED' ) ;
#36 = ORIENTED_EDGE ( 'NONE', *, *, #15, .T. ) ;
#37 = EDGE_LOOP ( 'NONE', ( #219 ) ) ;
#38 = EDGE_CURVE ( 'NONE', #164, #164, #163, .T. ) ;
#39 = UNCERTAINTY_MEASURE_WITH_UNIT (LENGTH_MEASURE( 1.000000000000000082E-05 ), #84, 'distance_accuracy_value', 'NONE');
#40 = ORIENTED_EDGE ( 'NONE', *, *, #186, .F. ) ;
#41 = FACE_OUTER_BOUND ( 'NONE', #110, .T. ) ;
#42 = CIRCLE ( 'NONE', #191, 2.023999999999997801 ) ;
#43 = DIRECTION ( 'NONE',  ( -3.491481338843133355E-15, 1.224646799147353207E-16, -1.000000000000000000 ) ) ;
#44 = DIRECTION ( 'NONE',  ( -3.491481338843133355E-15, 1.224646799147353207E-16, -1.000000000000000000 ) ) ;
#45 = CARTESIAN_POINT ( 'NONE',  ( 1.047444401652939218E-15, -3.673940397442057033E-17, 0.2999999999999997669 ) ) ;
#46 = PERSON ( 'UNSPECIFIED', 'UNSPECIFIED', 'UNSPECIFIED', ('UNSPECIFIED'), ('UNSPECIFIED'), ('UNSPECIFIED') ) ;
#47 = DIRECTION ( 'NONE',  ( -3.491481338843133355E-15, 1.224646799147353207E-16, -1.000000000000000000 ) ) ;
#48 = PERSON_AND_ORGANIZATION_ROLE ( 'creator' ) ;
#49 = CALENDAR_DATE ( 2021, 30, 11 ) ;
#50 = CARTESIAN_POINT ( 'NONE',  ( 0.0000000000000000000, 0.0000000000000000000, 0.0000000000000000000 ) ) ;
#51 = APPLICATION_PROTOCOL_DEFINITION ( 'international standard', 'config_control_design', 1994, #14 ) ;
#52 = CC_DESIGN_PERSON_AND_ORGANIZATION_ASSIGNMENT ( #93, #182, ( #76 ) ) ;
#53 = AXIS2_PLACEMENT_3D ( 'NONE', #118, #194, #77 ) ;
#54 = DATE_AND_TIME ( #30, #28 ) ;
#55 = PRODUCT_DEFINITION_SHAPE ( 'NONE', 'NONE',  #24 ) ;
#56 = EDGE_CURVE ( 'NONE', #32, #32, #87, .T. ) ;
#57 = ORIENTED_EDGE ( 'NONE', *, *, #147, .F. ) ;
#58 = AXIS2_PLACEMENT_3D ( 'NONE', #156, #21, #1 ) ;
#59 = FACE_OUTER_BOUND ( 'NONE', #92, .T. ) ;
#60 = PLANE ( 'NONE',  #121 ) ;
#61 = AXIS2_PLACEMENT_3D ( 'NONE', #221, #63, #116 ) ;
#62 = FACE_BOUND ( 'NONE', #220, .T. ) ;
#63 = DIRECTION ( 'NONE',  ( -3.491481338843133355E-15, 1.224646799147353207E-16, -1.000000000000000000 ) ) ;
#64 = DIRECTION ( 'NONE',  ( 0.0000000000000000000, 1.000000000000000000, 0.0000000000000000000 ) ) ;
#65 = CIRCLE ( 'NONE', #239, 2.024000000000000465 ) ;
#66 = ADVANCED_FACE ( 'NONE', ( #41, #97 ), #83, .T. ) ;
#67 = CARTESIAN_POINT ( 'NONE',  ( 1.047444401652939809E-15, 2.023999999999997801, 0.3000000000000000444 ) ) ;
#68 = PERSON_AND_ORGANIZATION ( #46, #88 ) ;
#69 =( NAMED_UNIT ( * ) SI_UNIT ( $, .STERADIAN. ) SOLID_ANGLE_UNIT ( ) );
#70 = EDGE_CURVE ( 'NONE', #82, #82, #120, .T. ) ;
#71 = CARTESIAN_POINT ( 'NONE',  ( 7.681258945454893382E-14, -2.694222958124176809E-15, 22.00000000000000000 ) ) ;
#72 = APPROVAL_DATE_TIME ( #166, #35 ) ;
#73 = PERSON_AND_ORGANIZATION ( #46, #88 ) ;
#74 = EDGE_LOOP ( 'NONE', ( #57 ) ) ;
#75 = AXIS2_PLACEMENT_3D ( 'NONE', #206, #207, #208 ) ;
#76 = SECURITY_CLASSIFICATION ( '', '', #201 ) ;
#77 = DIRECTION ( 'NONE',  ( -3.806185660844343740E-31, -1.000000000000000000, -1.339182525303243150E-16 ) ) ;
#78 = CARTESIAN_POINT ( 'NONE',  ( 2.199633243471174140E-13, 1.049831847863289378E-32, 63.00000000000000000 ) ) ;
#79 = DIRECTION ( 'NONE',  ( -4.275831445896958607E-31, -1.000000000000000000, -1.224646799147353207E-16 ) ) ;
#80 = DIRECTION ( 'NONE',  ( -3.491481338843133355E-15, 1.224646799147353207E-16, -1.000000000000000000 ) ) ;
#81 = CARTESIAN_POINT ( 'NONE',  ( 2.199633243471174140E-13, -7.715274834628325378E-15, 63.00000000000000000 ) ) ;
#82 = VERTEX_POINT ( 'NONE', #233 ) ;
#83 = CONICAL_SURFACE ( 'NONE', #218, 1.749999999999995337, 0.5235987755982923764 ) ;
#84 =( LENGTH_UNIT ( ) NAMED_UNIT ( * ) SI_UNIT ( .MILLI., .METRE. ) );
#85 = EDGE_CURVE ( 'NONE', #144, #144, #65, .T. ) ;
#86 = CARTESIAN_POINT ( 'NONE',  ( 7.846958337642903648E-14, 1.749999999999992450, 22.47458192127388799 ) ) ;
#87 = CIRCLE ( 'NONE', #31, 1.750000000000000888 ) ;
#88 = ORGANIZATION ( 'UNSPECIFIED', 'UNSPECIFIED', '' ) ;
#89 = ADVANCED_FACE ( 'NONE', ( #117, #119 ), #209, .T. ) ;
#90 = APPROVAL_STATUS ( 'not_yet_approved' ) ;
#91 = EDGE_LOOP ( 'NONE', ( #36 ) ) ;
#92 = EDGE_LOOP ( 'NONE', ( #235 ) ) ;
#93 = PERSON_AND_ORGANIZATION ( #46, #88 ) ;
#94 = EDGE_LOOP ( 'NONE', ( #170 ) ) ;
#95 = FACE_OUTER_BOUND ( 'NONE', #132, .T. ) ;
#96 = CC_DESIGN_PERSON_AND_ORGANIZATION_ASSIGNMENT ( #73, #217, ( #3 ) ) ;
#97 = FACE_BOUND ( 'NONE', #94, .T. ) ;
#98 = CARTESIAN_POINT ( 'NONE',  ( 2.187413058785222763E-13, -7.672412196658167445E-15, 62.64999999999999858 ) ) ;
#99 = DIRECTION ( 'NONE',  ( 0.0000000000000000000, 1.000000000000000000, 0.0000000000000000000 ) ) ;
#100 = ADVANCED_FACE ( 'NONE', ( #224 ), #157, .F. ) ;
#101 = DIRECTION ( 'NONE',  ( 4.275831445896958607E-31, 1.000000000000000000, 1.224646799147353207E-16 ) ) ;
#102 = CARTESIAN_POINT ( 'NONE',  ( 7.681258945454893382E-14, 2.023999999999998245, 22.00000000000000000 ) ) ;
#103 = ADVANCED_FACE ( 'NONE', ( #95, #62 ), #10, .T. ) ;
#104 = APPROVAL_ROLE ( '' ) ;
#105 = CALENDAR_DATE ( 2021, 30, 11 ) ;
#106 = APPROVAL_PERSON_ORGANIZATION ( #197, #176, #104 ) ;
#107 = CARTESIAN_POINT ( 'NONE',  ( 2.187413058785222763E-13, 1.749999999999993339, 62.64999999999999858 ) ) ;
#108 = CC_DESIGN_PERSON_AND_ORGANIZATION_ASSIGNMENT ( #68, #48, ( #24 ) ) ;
#109 = ADVANCED_FACE ( 'NONE', ( #23, #141 ), #27, .T. ) ;
#110 = EDGE_LOOP ( 'NONE', ( #238 ) ) ;
#111 = MANIFOLD_SOLID_BREP ( 'Corps-Déplacer/Copier1[2]', #22 ) ;
#112 = ADVANCED_BREP_SHAPE_REPRESENTATION ( '993718', ( #188, #111, #187 ), #154 ) ;
#113 = APPROVAL_ROLE ( '' ) ;
#114 = EDGE_LOOP ( 'NONE', ( #169 ) ) ;
#115 = DESIGN_CONTEXT ( 'detailed design', #14, 'design' ) ;
#116 = DIRECTION ( 'NONE',  ( 4.275831445896958607E-31, 1.000000000000000000, 1.224646799147353454E-16 ) ) ;
#117 = FACE_BOUND ( 'NONE', #184, .T. ) ;
#118 = CARTESIAN_POINT ( 'NONE',  ( 1.047444401652939218E-15, -3.673940397442057033E-17, 0.2999999999999997669 ) ) ;
#119 = FACE_OUTER_BOUND ( 'NONE', #114, .T. ) ;
#120 = CIRCLE ( 'NONE', #9, 1.400000000000001021 ) ;
#121 = AXIS2_PLACEMENT_3D ( 'NONE', #78, #25, #203 ) ;
#122 = DIRECTION ( 'NONE',  ( -3.491481338843133355E-15, 1.224646799147353207E-16, -1.000000000000000000 ) ) ;
#123 = DATE_TIME_ROLE ( 'creation_date' ) ;
#124 = COORDINATED_UNIVERSAL_TIME_OFFSET ( 1, 0, .AHEAD. ) ;
#125 = APPROVAL_STATUS ( 'not_yet_approved' ) ;
#126 = APPROVAL_PERSON_ORGANIZATION ( #162, #7, #231 ) ;
#127 = DIRECTION ( 'NONE',  ( 3.491481338843133355E-15, -1.224646799147353207E-16, 1.000000000000000000 ) ) ;
#128 = COORDINATED_UNIVERSAL_TIME_OFFSET ( 1, 0, .AHEAD. ) ;
#129 = PERSON_AND_ORGANIZATION_ROLE ( 'creator' ) ;
#130 = CC_DESIGN_APPROVAL ( #7, ( #24 ) ) ;
#131 = CC_DESIGN_DATE_AND_TIME_ASSIGNMENT ( #168, #237, ( #76 ) ) ;
#132 = EDGE_LOOP ( 'NONE', ( #135 ) ) ;
#133 = ORIENTED_EDGE ( 'NONE', *, *, #38, .F. ) ;
#134 = AXIS2_PLACEMENT_3D ( 'NONE', #71, #140, #99 ) ;
#135 = ORIENTED_EDGE ( 'NONE', *, *, #56, .F. ) ;
#136 = CARTESIAN_POINT ( 'NONE',  ( 7.846958337642903648E-14, -2.752342481206303632E-15, 22.47458192127388799 ) ) ;
#137 = DIRECTION ( 'NONE',  ( 0.0000000000000000000, 1.000000000000000000, 0.0000000000000000000 ) ) ;
#138 = AXIS2_PLACEMENT_3D ( 'NONE', #4, #173, #101 ) ;
#139 = APPROVAL_PERSON_ORGANIZATION ( #13, #35, #113 ) ;
#140 = DIRECTION ( 'NONE',  ( -3.491481338843133355E-15, 1.224646799147353207E-16, -1.000000000000000000 ) ) ;
#141 = FACE_OUTER_BOUND ( 'NONE', #37, .T. ) ;
#142 = FACE_OUTER_BOUND ( 'NONE', #91, .T. ) ;
#143 = CC_DESIGN_SECURITY_CLASSIFICATION ( #76, ( #3 ) ) ;
#144 = VERTEX_POINT ( 'NONE', #177 ) ;
#145 = CC_DESIGN_PERSON_AND_ORGANIZATION_ASSIGNMENT ( #234, #129, ( #3 ) ) ;
#146 = CARTESIAN_POINT ( 'NONE',  ( 7.681258945454893382E-14, 1.517756900053796527E-32, 22.00000000000000000 ) ) ;
#147 = EDGE_CURVE ( 'NONE', #6, #6, #205, .T. ) ;
#148 = DATE_AND_TIME ( #105, #236 ) ;
#149 = EDGE_LOOP ( 'NONE', ( #20 ) ) ;
#150 = CALENDAR_DATE ( 2021, 30, 11 ) ;
#151 = ORIENTED_EDGE ( 'NONE', *, *, #15, .F. ) ;
#152 = ADVANCED_FACE ( 'NONE', ( #159 ), #174, .F. ) ;
#153 = ORIENTED_EDGE ( 'NONE', *, *, #85, .T. ) ;
#154 =( GEOMETRIC_REPRESENTATION_CONTEXT ( 3 ) GLOBAL_UNCERTAINTY_ASSIGNED_CONTEXT ( ( #39 ) ) GLOBAL_UNIT_ASSIGNED_CONTEXT ( ( #84, #211, #69 ) ) REPRESENTATION_CONTEXT ( 'NONE', 'WORKASPACE' ) );
#155 = CARTESIAN_POINT ( 'NONE',  ( 7.681258945454893382E-14, 1.517756900053796527E-32, 22.00000000000000000 ) ) ;
#156 = CARTESIAN_POINT ( 'NONE',  ( -1.115700506549268396E-30, 3.913350585472023848E-32, -3.195493254215542605E-16 ) ) ;
#157 = PLANE ( 'NONE',  #75 ) ;
#158 = AXIS2_PLACEMENT_3D ( 'NONE', #155, #172, #79 ) ;
#159 = FACE_OUTER_BOUND ( 'NONE', #16, .T. ) ;
#160 = DIRECTION ( 'NONE',  ( 0.0000000000000000000, 1.000000000000000000, 0.0000000000000000000 ) ) ;
#161 = DIRECTION ( 'NONE',  ( 1.000000000000000000, 0.0000000000000000000, 0.0000000000000000000 ) ) ;
#162 = PERSON_AND_ORGANIZATION ( #46, #88 ) ;
#163 = CIRCLE ( 'NONE', #58, 1.724000000000001087 ) ;
#164 = VERTEX_POINT ( 'NONE', #199 ) ;
#165 = AXIS2_PLACEMENT_3D ( 'NONE', #146, #127, #230 ) ;
#166 = DATE_AND_TIME ( #150, #210 ) ;
#167 = APPROVAL_DATE_TIME ( #54, #176 ) ;
#168 = DATE_AND_TIME ( #17, #181 ) ;
#169 = ORIENTED_EDGE ( 'NONE', *, *, #186, .T. ) ;
#170 = ORIENTED_EDGE ( 'NONE', *, *, #147, .T. ) ;
#171 = DIRECTION ( 'NONE',  ( 0.0000000000000000000, 1.000000000000000000, 0.0000000000000000000 ) ) ;
#172 = DIRECTION ( 'NONE',  ( 3.491481338843133355E-15, -1.224646799147353207E-16, 1.000000000000000000 ) ) ;
#173 = DIRECTION ( 'NONE',  ( -3.491481338843133355E-15, 1.224646799147353207E-16, -1.000000000000000000 ) ) ;
#174 = PLANE ( 'NONE',  #158 ) ;
#175 = DIRECTION ( 'NONE',  ( -3.491481338843133355E-15, 1.224646799147353207E-16, -1.000000000000000000 ) ) ;
#176 = APPROVAL ( #29, 'UNSPECIFIED' ) ;
#177 = CARTESIAN_POINT ( 'NONE',  ( 7.681258945454893382E-14, 2.023999999999998245, 22.00000000000000000 ) ) ;
#178 = DATE_AND_TIME ( #49, #183 ) ;
#179 = AXIS2_PLACEMENT_3D ( 'NONE', #227, #122, #241 ) ;
#180 = DIRECTION ( 'NONE',  ( 0.0000000000000000000, 0.0000000000000000000, 1.000000000000000000 ) ) ;
#181 = LOCAL_TIME ( 15, 23, 7.000000000000000000, #128 ) ;
#182 = PERSON_AND_ORGANIZATION_ROLE ( 'classification_officer' ) ;
#183 = LOCAL_TIME ( 15, 23, 7.000000000000000000, #228 ) ;
#184 = EDGE_LOOP ( 'NONE', ( #133 ) ) ;
#185 = ORIENTED_EDGE ( 'NONE', *, *, #70, .T. ) ;
#186 = EDGE_CURVE ( 'NONE', #198, #198, #42, .T. ) ;
#187 = AXIS2_PLACEMENT_3D ( 'NONE', #50, #180, #161 ) ;
#188 = MANIFOLD_SOLID_BREP ( 'Corps-Déplacer/Copier1[1]', #189 ) ;
#189 = CLOSED_SHELL ( 'NONE', ( #152, #66, #109, #103, #225 ) ) ;
#190 = DIRECTION ( 'NONE',  ( -3.491481338843133355E-15, 1.224646799147353207E-16, -1.000000000000000000 ) ) ;
#191 = AXIS2_PLACEMENT_3D ( 'NONE', #45, #175, #26 ) ;
#192 = PLANE ( 'NONE',  #165 ) ;
#193 = CARTESIAN_POINT ( 'NONE',  ( 7.846958337642903648E-14, -2.752342481206303632E-15, 22.47458192127388799 ) ) ;
#194 = DIRECTION ( 'NONE',  ( 3.491481338843133355E-15, -1.224646799147353207E-16, 1.000000000000000000 ) ) ;
#195 = ADVANCED_FACE ( 'NONE', ( #226, #142 ), #242, .T. ) ;
#196 = APPLICATION_PROTOCOL_DEFINITION ( 'international standard', 'config_control_design', 1994, #5 ) ;
#197 = PERSON_AND_ORGANIZATION ( #46, #88 ) ;
#198 = VERTEX_POINT ( 'NONE', #67 ) ;
#199 = CARTESIAN_POINT ( 'NONE',  ( -3.785471652766321837E-31, 1.724000000000001087, -1.084202172485504187E-16 ) ) ;
#200 = COORDINATED_UNIVERSAL_TIME_OFFSET ( 1, 0, .AHEAD. ) ;
#201 = SECURITY_CLASSIFICATION_LEVEL ( 'unclassified' ) ;
#202 = EDGE_LOOP ( 'NONE', ( #40 ) ) ;
#203 = DIRECTION ( 'NONE',  ( 4.275831445896958607E-31, 1.000000000000000000, 1.224646799147353207E-16 ) ) ;
#204 = FACE_OUTER_BOUND ( 'NONE', #18, .T. ) ;
#205 = CIRCLE ( 'NONE', #12, 1.749999999999995337 ) ;
#206 = CARTESIAN_POINT ( 'NONE',  ( -5.578502532746341982E-31, 1.956675292736011924E-32, -1.597746627107771302E-16 ) ) ;
#207 = DIRECTION ( 'NONE',  ( 3.491481338843133355E-15, -1.224646799147353207E-16, 1.000000000000000000 ) ) ;
#208 = DIRECTION ( 'NONE',  ( -4.275831445896958607E-31, -1.000000000000000000, -1.224646799147353207E-16 ) ) ;
#209 = CONICAL_SURFACE ( 'NONE', #53, 2.023999999999997801, 0.7853981633974422838 ) ;
#210 = LOCAL_TIME ( 15, 23, 7.000000000000000000, #200 ) ;
#211 =( NAMED_UNIT ( * ) PLANE_ANGLE_UNIT ( ) SI_UNIT ( $, .RADIAN. ) );
#212 = PERSON_AND_ORGANIZATION ( #46, #88 ) ;
#213 = CC_DESIGN_APPROVAL ( #176, ( #3 ) ) ;
#214 = APPROVAL_DATE_TIME ( #178, #7 ) ;
#215 = PERSON_AND_ORGANIZATION_ROLE ( 'design_owner' ) ;
#216 = CC_DESIGN_DATE_AND_TIME_ASSIGNMENT ( #148, #123, ( #24 ) ) ;
#217 = PERSON_AND_ORGANIZATION_ROLE ( 'design_supplier' ) ;
#218 = AXIS2_PLACEMENT_3D ( 'NONE', #136, #190, #160 ) ;
#219 = ORIENTED_EDGE ( 'NONE', *, *, #56, .T. ) ;
#220 = EDGE_LOOP ( 'NONE', ( #185 ) ) ;
#221 = CARTESIAN_POINT ( 'NONE',  ( 0.0000000000000000000, 0.0000000000000000000, 0.0000000000000000000 ) ) ;
#222 = CC_DESIGN_PERSON_AND_ORGANIZATION_ASSIGNMENT ( #212, #215, ( #243 ) ) ;
#223 = DIRECTION ( 'NONE',  ( 0.0000000000000000000, 1.000000000000000000, 0.0000000000000000000 ) ) ;
#224 = FACE_OUTER_BOUND ( 'NONE', #149, .T. ) ;
#225 = ADVANCED_FACE ( 'NONE', ( #59 ), #60, .F. ) ;
#226 = FACE_OUTER_BOUND ( 'NONE', #202, .T. ) ;
#227 = CARTESIAN_POINT ( 'NONE',  ( 2.199633243471174140E-13, -7.715274834628325378E-15, 63.00000000000000000 ) ) ;
#228 = COORDINATED_UNIVERSAL_TIME_OFFSET ( 1, 0, .AHEAD. ) ;
#229 = MECHANICAL_CONTEXT ( 'NONE', #5, 'mechanical' ) ;
#230 = DIRECTION ( 'NONE',  ( -4.275831445896958607E-31, -1.000000000000000000, -1.224646799147353207E-16 ) ) ;
#231 = APPROVAL_ROLE ( '' ) ;
#232 = ADVANCED_FACE ( 'NONE', ( #204 ), #192, .T. ) ;
#233 = CARTESIAN_POINT ( 'NONE',  ( 2.199633243471174140E-13, 1.399999999999993250, 63.00000000000000000 ) ) ;
#234 = PERSON_AND_ORGANIZATION ( #46, #88 ) ;
#235 = ORIENTED_EDGE ( 'NONE', *, *, #70, .F. ) ;
#236 = LOCAL_TIME ( 15, 23, 7.000000000000000000, #124 ) ;
#237 = DATE_TIME_ROLE ( 'classification_date' ) ;
#238 = ORIENTED_EDGE ( 'NONE', *, *, #85, .F. ) ;
#239 = AXIS2_PLACEMENT_3D ( 'NONE', #2, #43, #64 ) ;
#240 = CC_DESIGN_APPROVAL ( #35, ( #76 ) ) ;
#241 = DIRECTION ( 'NONE',  ( 0.0000000000000000000, 1.000000000000000000, 0.0000000000000000000 ) ) ;
#242 = CYLINDRICAL_SURFACE ( 'NONE', #61, 2.023999999999998689 ) ;
#243 = PRODUCT ( '993718', '993718', '', ( #229 ) ) ;
ENDSEC;
END-ISO-10303-21;
