ISO-10303-21;
HEADER;
FILE_DESCRIPTION (( 'STEP AP203' ),
    '1' );
FILE_NAME ('993019.step',
    '2021-11-17T10:45:17',
    ( '' ),
    ( '' ),
    'SwSTEP 2.0',
    'SolidWorks 2019',
    '' );
FILE_SCHEMA (( 'CONFIG_CONTROL_DESIGN' ));
ENDSEC;

DATA;
#1 = CC_DESIGN_PERSON_AND_ORGANIZATION_ASSIGNMENT ( #49, #162, ( #152 ) ) ;
#2 = AXIS2_PLACEMENT_3D ( 'NONE', #175, #108, #73 ) ;
#3 = APPROVAL_STATUS ( 'not_yet_approved' ) ;
#4 = EDGE_LOOP ( 'NONE', ( #15 ) ) ;
#5 = EDGE_LOOP ( 'NONE', ( #53 ) ) ;
#6 = FACE_OUTER_BOUND ( 'NONE', #36, .T. ) ;
#7 = CARTESIAN_POINT ( 'NONE',  ( 1.745740669421565100E-15, -6.089586426037722232E-17, 0.4999999999999995559 ) ) ;
#8 = CARTESIAN_POINT ( 'NONE',  ( 3.177248018347251480E-13, -1.114428587224091426E-14, 91.00000000000000000 ) ) ;
#9 = FACE_OUTER_BOUND ( 'NONE', #55, .T. ) ;
#10 = EDGE_CURVE ( 'NONE', #87, #87, #38, .T. ) ;
#11 = CYLINDRICAL_SURFACE ( 'NONE', #31, 8.000000000000000000 ) ;
#12 = CALENDAR_DATE ( 2021, 17, 11 ) ;
#13 = CC_DESIGN_APPROVAL ( #61, ( #152 ) ) ;
#14 = MANIFOLD_SOLID_BREP ( 'Corps-Déplacer/Copier1[2]', #65 ) ;
#15 = ORIENTED_EDGE ( 'NONE', *, *, #118, .T. ) ;
#16 = APPROVAL ( #50, 'UNSPECIFIED' ) ;
#17 =( GEOMETRIC_REPRESENTATION_CONTEXT ( 3 ) GLOBAL_UNCERTAINTY_ASSIGNED_CONTEXT ( ( #209 ) ) GLOBAL_UNIT_ASSIGNED_CONTEXT ( ( #79, #26, #135 ) ) REPRESENTATION_CONTEXT ( 'NONE', 'WORKASPACE' ) );
#18 = ORIENTED_EDGE ( 'NONE', *, *, #177, .T. ) ;
#19 = DIRECTION ( 'NONE',  ( 4.275831445896958607E-31, 1.000000000000000000, 1.224646799147353207E-16 ) ) ;
#20 = APPLICATION_CONTEXT ( 'configuration controlled 3d designs of mechanical parts and assemblies' ) ;
#21 = FACE_OUTER_BOUND ( 'NONE', #103, .T. ) ;
#22 = DIRECTION ( 'NONE',  ( 3.491481338843133355E-15, -1.217917285207545432E-16, 1.000000000000000000 ) ) ;
#23 = CARTESIAN_POINT ( 'NONE',  ( 1.117274028429802674E-13, -3.918869757271530263E-15, 32.00000000000000000 ) ) ;
#24 = CARTESIAN_POINT ( 'NONE',  ( 1.117274028429802674E-13, 7.999999999999996447, 32.00000000000000000 ) ) ;
#25 = AXIS2_PLACEMENT_3D ( 'NONE', #7, #124, #39 ) ;
#26 =( NAMED_UNIT ( * ) PLANE_ANGLE_UNIT ( ) SI_UNIT ( $, .RADIAN. ) );
#27 = CC_DESIGN_PERSON_AND_ORGANIZATION_ASSIGNMENT ( #183, #100, ( #40 ) ) ;
#28 = DATE_TIME_ROLE ( 'classification_date' ) ;
#29 = APPROVAL_DATE_TIME ( #181, #16 ) ;
#30 = MECHANICAL_CONTEXT ( 'NONE', #216, 'mechanical' ) ;
#31 = AXIS2_PLACEMENT_3D ( 'NONE', #211, #93, #19 ) ;
#32 = DIRECTION ( 'NONE',  ( 1.000000000000000000, 0.0000000000000000000, 0.0000000000000000000 ) ) ;
#33 = DIRECTION ( 'NONE',  ( 3.491481338843133355E-15, -1.217917285207545432E-16, 1.000000000000000000 ) ) ;
#34 = EDGE_LOOP ( 'NONE', ( #186 ) ) ;
#35 = ORIENTED_EDGE ( 'NONE', *, *, #10, .T. ) ;
#36 = EDGE_LOOP ( 'NONE', ( #206 ) ) ;
#37 = CC_DESIGN_SECURITY_CLASSIFICATION ( #201, ( #167 ) ) ;
#38 = CIRCLE ( 'NONE', #95, 7.499999999999998224 ) ;
#39 = DIRECTION ( 'NONE',  ( -4.333342374871280669E-31, -1.000000000000000000, -1.219727444046192488E-16 ) ) ;
#40 = PRODUCT ( '993019', '993019', '', ( #30 ) ) ;
#41 = DIRECTION ( 'NONE',  ( -3.491481338843133355E-15, 1.224646799147353207E-16, -1.000000000000000000 ) ) ;
#42 = DESIGN_CONTEXT ( 'detailed design', #20, 'design' ) ;
#43 = DIRECTION ( 'NONE',  ( -3.491481338843133355E-15, 1.224646799147353207E-16, -1.000000000000000000 ) ) ;
#44 = DIRECTION ( 'NONE',  ( -3.491481338843133355E-15, 1.224646799147353207E-16, -1.000000000000000000 ) ) ;
#45 = CARTESIAN_POINT ( 'NONE',  ( 3.212162831735682182E-13, 5.249159239316486301E-32, 92.00000000000000000 ) ) ;
#46 = VERTEX_POINT ( 'NONE', #98 ) ;
#47 = EDGE_CURVE ( 'NONE', #208, #208, #174, .T. ) ;
#48 = AXIS2_PLACEMENT_3D ( 'NONE', #23, #109, #74 ) ;
#49 = PERSON_AND_ORGANIZATION ( #197, #202 ) ;
#50 = APPROVAL_STATUS ( 'not_yet_approved' ) ;
#51 = CARTESIAN_POINT ( 'NONE',  ( 0.0000000000000000000, 0.0000000000000000000, 0.0000000000000000000 ) ) ;
#52 = ORIENTED_EDGE ( 'NONE', *, *, #177, .F. ) ;
#53 = ORIENTED_EDGE ( 'NONE', *, *, #172, .F. ) ;
#54 = ORIENTED_EDGE ( 'NONE', *, *, #47, .F. ) ;
#55 = EDGE_LOOP ( 'NONE', ( #168 ) ) ;
#56 = FACE_OUTER_BOUND ( 'NONE', #4, .T. ) ;
#57 = APPROVAL_PERSON_ORGANIZATION ( #70, #127, #105 ) ;
#58 = AXIS2_PLACEMENT_3D ( 'NONE', #140, #111, #90 ) ;
#59 = FACE_OUTER_BOUND ( 'NONE', #223, .T. ) ;
#60 = DIRECTION ( 'NONE',  ( 4.275831445896958607E-31, 1.000000000000000000, 1.224646799147353207E-16 ) ) ;
#61 = APPROVAL ( #161, 'UNSPECIFIED' ) ;
#62 = CARTESIAN_POINT ( 'NONE',  ( -1.710332578358783092E-30, 5.999039130647430431E-32, -4.898587196589412829E-16 ) ) ;
#63 = DIRECTION ( 'NONE',  ( -4.333342374871280669E-31, -1.000000000000000000, -1.219727444046192488E-16 ) ) ;
#64 = PERSON_AND_ORGANIZATION_ROLE ( 'creator' ) ;
#65 = CLOSED_SHELL ( 'NONE', ( #130, #80, #199, #132 ) ) ;
#66 = CARTESIAN_POINT ( 'NONE',  ( 1.745740669421561747E-15, -8.000000000000000000, 0.4999999999999986122 ) ) ;
#67 = PERSON_AND_ORGANIZATION ( #197, #202 ) ;
#68 = AXIS2_PLACEMENT_3D ( 'NONE', #154, #129, #213 ) ;
#69 = DIRECTION ( 'NONE',  ( -3.491481338843133355E-15, 1.224646799147353207E-16, -1.000000000000000000 ) ) ;
#70 = PERSON_AND_ORGANIZATION ( #197, #202 ) ;
#71 = DIRECTION ( 'NONE',  ( 4.275831445896958607E-31, 1.000000000000000000, 1.224646799147353207E-16 ) ) ;
#72 = AXIS2_PLACEMENT_3D ( 'NONE', #173, #44, #71 ) ;
#73 = DIRECTION ( 'NONE',  ( -4.275831445896958607E-31, -1.000000000000000000, -1.224646799147353207E-16 ) ) ;
#74 = DIRECTION ( 'NONE',  ( 0.0000000000000000000, 1.000000000000000000, 0.0000000000000000000 ) ) ;
#75 = AXIS2_PLACEMENT_3D ( 'NONE', #51, #134, #32 ) ;
#76 = CIRCLE ( 'NONE', #48, 8.000000000000000000 ) ;
#77 = APPROVAL_ROLE ( '' ) ;
#78 = PERSON_AND_ORGANIZATION ( #197, #202 ) ;
#79 =( LENGTH_UNIT ( ) NAMED_UNIT ( * ) SI_UNIT ( .MILLI., .METRE. ) );
#80 = ADVANCED_FACE ( 'NONE', ( #142 ), #143, .T. ) ;
#81 = APPROVAL_DATE_TIME ( #163, #61 ) ;
#82 = APPROVAL_PERSON_ORGANIZATION ( #148, #16, #219 ) ;
#83 = EDGE_LOOP ( 'NONE', ( #54 ) ) ;
#84 = APPROVAL_PERSON_ORGANIZATION ( #78, #61, #77 ) ;
#85 = EDGE_LOOP ( 'NONE', ( #138 ) ) ;
#86 = DIRECTION ( 'NONE',  ( 4.275831445896958607E-31, 1.000000000000000000, 1.224646799147353207E-16 ) ) ;
#87 = VERTEX_POINT ( 'NONE', #131 ) ;
#88 = CONICAL_SURFACE ( 'NONE', #120, 8.000000000000000000, 0.7853981633974499443 ) ;
#89 = PRODUCT_DEFINITION_SHAPE ( 'NONE', 'NONE',  #152 ) ;
#90 = DIRECTION ( 'NONE',  ( -4.275831445896958607E-31, -1.000000000000000000, -1.224646799147353207E-16 ) ) ;
#91 = FACE_BOUND ( 'NONE', #185, .T. ) ;
#92 = MANIFOLD_SOLID_BREP ( 'Corps-Déplacer/Copier1[1]', #153 ) ;
#93 = DIRECTION ( 'NONE',  ( -3.491481338843133355E-15, 1.224646799147353207E-16, -1.000000000000000000 ) ) ;
#94 = LOCAL_TIME ( 11, 45, 17.00000000000000000, #217 ) ;
#95 = AXIS2_PLACEMENT_3D ( 'NONE', #184, #33, #101 ) ;
#96 = PERSON_AND_ORGANIZATION ( #197, #202 ) ;
#97 = CARTESIAN_POINT ( 'NONE',  ( 3.212162831735682182E-13, 6.999999999999990230, 92.00000000000000000 ) ) ;
#98 = CARTESIAN_POINT ( 'NONE',  ( 1.117274028429802674E-13, 7.999999999999996447, 32.00000000000000000 ) ) ;
#99 = CIRCLE ( 'NONE', #110, 8.000000000000000000 ) ;
#100 = PERSON_AND_ORGANIZATION_ROLE ( 'design_owner' ) ;
#101 = DIRECTION ( 'NONE',  ( -4.252335473556635820E-31, -1.000000000000000000, -1.217917285207545432E-16 ) ) ;
#102 = DATE_AND_TIME ( #187, #136 ) ;
#103 = EDGE_LOOP ( 'NONE', ( #139 ) ) ;
#104 = CC_DESIGN_PERSON_AND_ORGANIZATION_ASSIGNMENT ( #96, #195, ( #201 ) ) ;
#105 = APPROVAL_ROLE ( '' ) ;
#106 = LOCAL_TIME ( 11, 45, 17.00000000000000000, #215 ) ;
#107 = FACE_OUTER_BOUND ( 'NONE', #121, .T. ) ;
#108 = DIRECTION ( 'NONE',  ( 3.491481338843133355E-15, -1.224646799147353207E-16, 1.000000000000000000 ) ) ;
#109 = DIRECTION ( 'NONE',  ( -3.491481338843133355E-15, 1.224646799147353207E-16, -1.000000000000000000 ) ) ;
#110 = AXIS2_PLACEMENT_3D ( 'NONE', #210, #156, #192 ) ;
#111 = DIRECTION ( 'NONE',  ( 3.491481338843133355E-15, -1.224646799147353207E-16, 1.000000000000000000 ) ) ;
#112 = CARTESIAN_POINT ( 'NONE',  ( 3.177248018347251480E-13, 7.999999999999988454, 91.00000000000000000 ) ) ;
#113 = CC_DESIGN_DATE_AND_TIME_ASSIGNMENT ( #198, #194, ( #152 ) ) ;
#114 = CC_DESIGN_APPROVAL ( #127, ( #201 ) ) ;
#115 = COORDINATED_UNIVERSAL_TIME_OFFSET ( 1, 0, .AHEAD. ) ;
#116 = CALENDAR_DATE ( 2021, 17, 11 ) ;
#117 = PERSON_AND_ORGANIZATION_ROLE ( 'design_supplier' ) ;
#118 = EDGE_CURVE ( 'NONE', #176, #176, #99, .T. ) ;
#119 = APPROVAL_DATE_TIME ( #102, #127 ) ;
#120 = AXIS2_PLACEMENT_3D ( 'NONE', #189, #22, #63 ) ;
#121 = EDGE_LOOP ( 'NONE', ( #122 ) ) ;
#122 = ORIENTED_EDGE ( 'NONE', *, *, #10, .F. ) ;
#123 = AXIS2_PLACEMENT_3D ( 'NONE', #8, #43, #158 ) ;
#124 = DIRECTION ( 'NONE',  ( 3.491481338843133355E-15, -1.217917285207545432E-16, 1.000000000000000000 ) ) ;
#125 = CIRCLE ( 'NONE', #25, 8.000000000000000000 ) ;
#126 = CYLINDRICAL_SURFACE ( 'NONE', #72, 8.000000000000000000 ) ;
#127 = APPROVAL ( #3, 'UNSPECIFIED' ) ;
#128 = FACE_BOUND ( 'NONE', #34, .T. ) ;
#129 = DIRECTION ( 'NONE',  ( -3.491481338843133355E-15, 1.224646799147353207E-16, -1.000000000000000000 ) ) ;
#130 = ADVANCED_FACE ( 'NONE', ( #59, #155 ), #11, .T. ) ;
#131 = CARTESIAN_POINT ( 'NONE',  ( -6.411024944690958094E-30, -7.499999999999998224, -1.836190522735311162E-15 ) ) ;
#132 = ADVANCED_FACE ( 'NONE', ( #107 ), #171, .T. ) ;
#133 = CC_DESIGN_DATE_AND_TIME_ASSIGNMENT ( #180, #28, ( #201 ) ) ;
#134 = DIRECTION ( 'NONE',  ( 0.0000000000000000000, 0.0000000000000000000, 1.000000000000000000 ) ) ;
#135 =( NAMED_UNIT ( * ) SI_UNIT ( $, .STERADIAN. ) SOLID_ANGLE_UNIT ( ) );
#136 = LOCAL_TIME ( 11, 45, 17.00000000000000000, #166 ) ;
#137 = EDGE_CURVE ( 'NONE', #190, #190, #125, .T. ) ;
#138 = ORIENTED_EDGE ( 'NONE', *, *, #137, .T. ) ;
#139 = ORIENTED_EDGE ( 'NONE', *, *, #47, .T. ) ;
#140 = CARTESIAN_POINT ( 'NONE',  ( 1.117274028429802674E-13, 5.999039130647424958E-32, 32.00000000000000000 ) ) ;
#141 = FACE_OUTER_BOUND ( 'NONE', #5, .T. ) ;
#142 = FACE_OUTER_BOUND ( 'NONE', #205, .T. ) ;
#143 = PLANE ( 'NONE',  #2 ) ;
#144 = CC_DESIGN_PERSON_AND_ORGANIZATION_ASSIGNMENT ( #67, #117, ( #167 ) ) ;
#145 = LOCAL_TIME ( 11, 45, 17.00000000000000000, #147 ) ;
#146 = PERSON_AND_ORGANIZATION ( #197, #202 ) ;
#147 = COORDINATED_UNIVERSAL_TIME_OFFSET ( 1, 0, .AHEAD. ) ;
#148 = PERSON_AND_ORGANIZATION ( #197, #202 ) ;
#149 = ADVANCED_BREP_SHAPE_REPRESENTATION ( '993019', ( #92, #14, #75 ), #17 ) ;
#150 = APPLICATION_PROTOCOL_DEFINITION ( 'international standard', 'config_control_design', 1994, #216 ) ;
#151 = CALENDAR_DATE ( 2021, 17, 11 ) ;
#152 = PRODUCT_DEFINITION ( 'UNKNOWN', '', #167, #42 ) ;
#153 = CLOSED_SHELL ( 'NONE', ( #157, #188, #169, #160 ) ) ;
#154 = CARTESIAN_POINT ( 'NONE',  ( 3.212162831735682182E-13, -1.126675055215564941E-14, 92.00000000000000000 ) ) ;
#155 = FACE_OUTER_BOUND ( 'NONE', #85, .T. ) ;
#156 = DIRECTION ( 'NONE',  ( -3.491481338843133355E-15, 1.224646799147353207E-16, -1.000000000000000000 ) ) ;
#157 = ADVANCED_FACE ( 'NONE', ( #56 ), #170, .F. ) ;
#158 = DIRECTION ( 'NONE',  ( 0.0000000000000000000, 1.000000000000000000, 0.0000000000000000000 ) ) ;
#159 = PLANE ( 'NONE',  #179 ) ;
#160 = ADVANCED_FACE ( 'NONE', ( #141 ), #159, .F. ) ;
#161 = APPROVAL_STATUS ( 'not_yet_approved' ) ;
#162 = PERSON_AND_ORGANIZATION_ROLE ( 'creator' ) ;
#163 = DATE_AND_TIME ( #12, #145 ) ;
#164 = APPLICATION_PROTOCOL_DEFINITION ( 'international standard', 'config_control_design', 1994, #20 ) ;
#165 = CARTESIAN_POINT ( 'NONE',  ( 3.177248018347251480E-13, -1.114428587224091426E-14, 91.00000000000000000 ) ) ;
#166 = COORDINATED_UNIVERSAL_TIME_OFFSET ( 1, 0, .AHEAD. ) ;
#167 = PRODUCT_DEFINITION_FORMATION_WITH_SPECIFIED_SOURCE ( 'ANY', '', #40, .NOT_KNOWN. ) ;
#168 = ORIENTED_EDGE ( 'NONE', *, *, #137, .F. ) ;
#169 = ADVANCED_FACE ( 'NONE', ( #128, #191 ), #178, .T. ) ;
#170 = PLANE ( 'NONE',  #58 ) ;
#171 = PLANE ( 'NONE',  #222 ) ;
#172 = EDGE_CURVE ( 'NONE', #182, #182, #196, .T. ) ;
#173 = CARTESIAN_POINT ( 'NONE',  ( 0.0000000000000000000, 0.0000000000000000000, 0.0000000000000000000 ) ) ;
#174 = CIRCLE ( 'NONE', #204, 7.999999999999998224 ) ;
#175 = CARTESIAN_POINT ( 'NONE',  ( 1.117274028429802674E-13, 5.999039130647424958E-32, 32.00000000000000000 ) ) ;
#176 = VERTEX_POINT ( 'NONE', #24 ) ;
#177 = EDGE_CURVE ( 'NONE', #46, #46, #76, .T. ) ;
#178 = CONICAL_SURFACE ( 'NONE', #123, 7.999999999999998224, 0.7853981633974461696 ) ;
#179 = AXIS2_PLACEMENT_3D ( 'NONE', #45, #207, #60 ) ;
#180 = DATE_AND_TIME ( #200, #221 ) ;
#181 = DATE_AND_TIME ( #116, #106 ) ;
#182 = VERTEX_POINT ( 'NONE', #97 ) ;
#183 = PERSON_AND_ORGANIZATION ( #197, #202 ) ;
#184 = CARTESIAN_POINT ( 'NONE',  ( -3.221773339523482149E-30, 1.123836291368126173E-31, -9.227525588296524577E-16 ) ) ;
#185 = EDGE_LOOP ( 'NONE', ( #35 ) ) ;
#186 = ORIENTED_EDGE ( 'NONE', *, *, #172, .T. ) ;
#187 = CALENDAR_DATE ( 2021, 17, 11 ) ;
#188 = ADVANCED_FACE ( 'NONE', ( #21, #6 ), #126, .T. ) ;
#189 = CARTESIAN_POINT ( 'NONE',  ( 1.745740669421565100E-15, -6.089586426037722232E-17, 0.4999999999999995559 ) ) ;
#190 = VERTEX_POINT ( 'NONE', #66 ) ;
#191 = FACE_OUTER_BOUND ( 'NONE', #83, .T. ) ;
#192 = DIRECTION ( 'NONE',  ( 0.0000000000000000000, 1.000000000000000000, 0.0000000000000000000 ) ) ;
#193 = CC_DESIGN_PERSON_AND_ORGANIZATION_ASSIGNMENT ( #146, #64, ( #167 ) ) ;
#194 = DATE_TIME_ROLE ( 'creation_date' ) ;
#195 = PERSON_AND_ORGANIZATION_ROLE ( 'classification_officer' ) ;
#196 = CIRCLE ( 'NONE', #68, 7.000000000000001776 ) ;
#197 = PERSON ( 'UNSPECIFIED', 'UNSPECIFIED', 'UNSPECIFIED', ('UNSPECIFIED'), ('UNSPECIFIED'), ('UNSPECIFIED') ) ;
#198 = DATE_AND_TIME ( #151, #94 ) ;
#199 = ADVANCED_FACE ( 'NONE', ( #91, #9 ), #88, .T. ) ;
#200 = CALENDAR_DATE ( 2021, 17, 11 ) ;
#201 = SECURITY_CLASSIFICATION ( '', '', #214 ) ;
#202 = ORGANIZATION ( 'UNSPECIFIED', 'UNSPECIFIED', '' ) ;
#203 = DIRECTION ( 'NONE',  ( 0.0000000000000000000, 1.000000000000000000, 0.0000000000000000000 ) ) ;
#204 = AXIS2_PLACEMENT_3D ( 'NONE', #165, #69, #203 ) ;
#205 = EDGE_LOOP ( 'NONE', ( #52 ) ) ;
#206 = ORIENTED_EDGE ( 'NONE', *, *, #118, .F. ) ;
#207 = DIRECTION ( 'NONE',  ( -3.491481338843133355E-15, 1.224646799147353207E-16, -1.000000000000000000 ) ) ;
#208 = VERTEX_POINT ( 'NONE', #112 ) ;
#209 = UNCERTAINTY_MEASURE_WITH_UNIT (LENGTH_MEASURE( 1.000000000000000082E-05 ), #79, 'distance_accuracy_value', 'NONE');
#210 = CARTESIAN_POINT ( 'NONE',  ( 1.117274028429802674E-13, -3.918869757271530263E-15, 32.00000000000000000 ) ) ;
#211 = CARTESIAN_POINT ( 'NONE',  ( 0.0000000000000000000, 0.0000000000000000000, 0.0000000000000000000 ) ) ;
#212 = CC_DESIGN_APPROVAL ( #16, ( #167 ) ) ;
#213 = DIRECTION ( 'NONE',  ( 0.0000000000000000000, 1.000000000000000000, 0.0000000000000000000 ) ) ;
#214 = SECURITY_CLASSIFICATION_LEVEL ( 'unclassified' ) ;
#215 = COORDINATED_UNIVERSAL_TIME_OFFSET ( 1, 0, .AHEAD. ) ;
#216 = APPLICATION_CONTEXT ( 'configuration controlled 3d designs of mechanical parts and assemblies' ) ;
#217 = COORDINATED_UNIVERSAL_TIME_OFFSET ( 1, 0, .AHEAD. ) ;
#218 = PRODUCT_RELATED_PRODUCT_CATEGORY ( 'detail', '', ( #40 ) ) ;
#219 = APPROVAL_ROLE ( '' ) ;
#220 = SHAPE_DEFINITION_REPRESENTATION ( #89, #149 ) ;
#221 = LOCAL_TIME ( 11, 45, 17.00000000000000000, #115 ) ;
#222 = AXIS2_PLACEMENT_3D ( 'NONE', #62, #41, #86 ) ;
#223 = EDGE_LOOP ( 'NONE', ( #18 ) ) ;
ENDSEC;
END-ISO-10303-21;
