ISO-10303-21;
HEADER;
FILE_DESCRIPTION (( 'STEP AP203' ),
    '1' );
FILE_NAME ('993017.step',
    '2021-11-17T10:45:16',
    ( '' ),
    ( '' ),
    'SwSTEP 2.0',
    'SolidWorks 2019',
    '' );
FILE_SCHEMA (( 'CONFIG_CONTROL_DESIGN' ));
ENDSEC;

DATA;
#1 = FACE_OUTER_BOUND ( 'NONE', #171, .T. ) ;
#2 = DATE_TIME_ROLE ( 'creation_date' ) ;
#3 = APPROVAL_STATUS ( 'not_yet_approved' ) ;
#4 = ADVANCED_FACE ( 'NONE', ( #114, #14 ), #45, .T. ) ;
#5 = DATE_AND_TIME ( #172, #33 ) ;
#6 =( GEOMETRIC_REPRESENTATION_CONTEXT ( 3 ) GLOBAL_UNCERTAINTY_ASSIGNED_CONTEXT ( ( #98 ) ) GLOBAL_UNIT_ASSIGNED_CONTEXT ( ( #193, #102, #9 ) ) REPRESENTATION_CONTEXT ( 'NONE', 'WORKASPACE' ) );
#7 = CONICAL_SURFACE ( 'NONE', #130, 3.000000000000000000, 0.7853981633974504994 ) ;
#8 = CARTESIAN_POINT ( 'NONE',  ( 1.047444401652937246E-15, -3.000000000000000000, 0.2999999999999992117 ) ) ;
#9 =( NAMED_UNIT ( * ) SI_UNIT ( $, .STERADIAN. ) SOLID_ANGLE_UNIT ( ) );
#10 = CC_DESIGN_SECURITY_CLASSIFICATION ( #150, ( #192 ) ) ;
#11 = AXIS2_PLACEMENT_3D ( 'NONE', #22, #173, #93 ) ;
#12 = ADVANCED_FACE ( 'NONE', ( #135 ), #97, .T. ) ;
#13 = EDGE_LOOP ( 'NONE', ( #106 ) ) ;
#14 = FACE_OUTER_BOUND ( 'NONE', #94, .T. ) ;
#15 = ORIENTED_EDGE ( 'NONE', *, *, #82, .F. ) ;
#16 = ADVANCED_BREP_SHAPE_REPRESENTATION ( '993017', ( #214, #131, #169 ), #6 ) ;
#17 = DIRECTION ( 'NONE',  ( -3.491481338843133355E-15, 1.224646799147353207E-16, -1.000000000000000000 ) ) ;
#18 = EDGE_LOOP ( 'NONE', ( #90 ) ) ;
#19 = APPROVAL_STATUS ( 'not_yet_approved' ) ;
#20 = DIRECTION ( 'NONE',  ( 0.0000000000000000000, 1.000000000000000000, 0.0000000000000000000 ) ) ;
#21 = PERSON_AND_ORGANIZATION ( #200, #185 ) ;
#22 = CARTESIAN_POINT ( 'NONE',  ( 1.047444401652938626E-15, -3.653751855622630997E-17, 0.2999999999999996003 ) ) ;
#23 = PLANE ( 'NONE',  #92 ) ;
#24 = PERSON_AND_ORGANIZATION_ROLE ( 'creator' ) ;
#25 = APPROVAL ( #19, 'UNSPECIFIED' ) ;
#26 = DATE_TIME_ROLE ( 'classification_date' ) ;
#27 = PERSON_AND_ORGANIZATION_ROLE ( 'creator' ) ;
#28 = PERSON_AND_ORGANIZATION ( #200, #185 ) ;
#29 = CIRCLE ( 'NONE', #99, 2.999999999999999556 ) ;
#30 = DIRECTION ( 'NONE',  ( 0.0000000000000000000, 1.000000000000000000, 0.0000000000000000000 ) ) ;
#31 = ORIENTED_EDGE ( 'NONE', *, *, #141, .F. ) ;
#32 = CYLINDRICAL_SURFACE ( 'NONE', #120, 3.000000000000000000 ) ;
#33 = LOCAL_TIME ( 11, 45, 16.00000000000000000, #191 ) ;
#34 = ORIENTED_EDGE ( 'NONE', *, *, #104, .T. ) ;
#35 = PLANE ( 'NONE',  #87 ) ;
#36 = DIRECTION ( 'NONE',  ( 4.275831445896959482E-31, 1.000000000000000000, 1.224646799147353207E-16 ) ) ;
#37 = ADVANCED_FACE ( 'NONE', ( #174 ), #95, .F. ) ;
#38 = FACE_OUTER_BOUND ( 'NONE', #180, .T. ) ;
#39 = APPROVAL_ROLE ( '' ) ;
#40 = APPROVAL ( #3, 'UNSPECIFIED' ) ;
#41 = VERTEX_POINT ( 'NONE', #8 ) ;
#42 = VERTEX_POINT ( 'NONE', #196 ) ;
#43 = CARTESIAN_POINT ( 'NONE',  ( 4.538925740496073362E-14, 2.999999999999998224, 13.00000000000000000 ) ) ;
#44 = AXIS2_PLACEMENT_3D ( 'NONE', #222, #64, #181 ) ;
#45 = CONICAL_SURFACE ( 'NONE', #126, 2.999999999999999556, 0.7853981633974405074 ) ;
#46 = DIRECTION ( 'NONE',  ( -3.491481338843133355E-15, 1.224646799147353207E-16, -1.000000000000000000 ) ) ;
#47 = FACE_OUTER_BOUND ( 'NONE', #75, .T. ) ;
#48 = CARTESIAN_POINT ( 'NONE',  ( 1.990144363140586139E-13, -6.980486755139912911E-15, 57.00000000000000000 ) ) ;
#49 = DIRECTION ( 'NONE',  ( -3.491481338843133355E-15, 1.224646799147353207E-16, -1.000000000000000000 ) ) ;
#50 = COORDINATED_UNIVERSAL_TIME_OFFSET ( 1, 0, .AHEAD. ) ;
#51 = CARTESIAN_POINT ( 'NONE',  ( 0.0000000000000000000, 0.0000000000000000000, 0.0000000000000000000 ) ) ;
#52 = CALENDAR_DATE ( 2021, 17, 11 ) ;
#53 = APPROVAL_DATE_TIME ( #119, #40 ) ;
#54 = APPROVAL_ROLE ( '' ) ;
#55 = APPROVAL_PERSON_ORGANIZATION ( #28, #40, #54 ) ;
#56 = PRODUCT_RELATED_PRODUCT_CATEGORY ( 'detail', '', ( #161 ) ) ;
#57 = CC_DESIGN_PERSON_AND_ORGANIZATION_ASSIGNMENT ( #122, #27, ( #204 ) ) ;
#58 = AXIS2_PLACEMENT_3D ( 'NONE', #206, #49, #91 ) ;
#59 = DIRECTION ( 'NONE',  ( -3.491481338843133355E-15, 1.224646799147353207E-16, -1.000000000000000000 ) ) ;
#60 = ORIENTED_EDGE ( 'NONE', *, *, #141, .T. ) ;
#61 = CARTESIAN_POINT ( 'NONE',  ( 1.972686956446370283E-13, -6.919254415182544548E-15, 56.49999999999999289 ) ) ;
#62 = ORIENTED_EDGE ( 'NONE', *, *, #104, .F. ) ;
#63 = COORDINATED_UNIVERSAL_TIME_OFFSET ( 1, 0, .AHEAD. ) ;
#64 = DIRECTION ( 'NONE',  ( -3.491481338843133355E-15, 1.224646799147353207E-16, -1.000000000000000000 ) ) ;
#65 = PERSON_AND_ORGANIZATION ( #200, #185 ) ;
#66 = CYLINDRICAL_SURFACE ( 'NONE', #197, 3.000000000000000000 ) ;
#67 = DATE_AND_TIME ( #188, #80 ) ;
#68 = MECHANICAL_CONTEXT ( 'NONE', #113, 'mechanical' ) ;
#69 = EDGE_CURVE ( 'NONE', #195, #195, #137, .T. ) ;
#70 = CIRCLE ( 'NONE', #11, 3.000000000000000000 ) ;
#71 = AXIS2_PLACEMENT_3D ( 'NONE', #117, #183, #140 ) ;
#72 = DIRECTION ( 'NONE',  ( 3.491481338843133355E-15, -1.217917285207545432E-16, 1.000000000000000000 ) ) ;
#73 = EDGE_LOOP ( 'NONE', ( #109 ) ) ;
#74 = DIRECTION ( 'NONE',  ( -4.275831445896958607E-31, -1.000000000000000000, -1.224646799147353207E-16 ) ) ;
#75 = EDGE_LOOP ( 'NONE', ( #208 ) ) ;
#76 = APPROVAL_DATE_TIME ( #5, #132 ) ;
#77 = DIRECTION ( 'NONE',  ( -4.252335473556635820E-31, -1.000000000000000000, -1.217917285207545432E-16 ) ) ;
#78 = SECURITY_CLASSIFICATION_LEVEL ( 'unclassified' ) ;
#79 = CARTESIAN_POINT ( 'NONE',  ( 1.972686956446370283E-13, -6.919254415182544548E-15, 56.49999999999999289 ) ) ;
#80 = LOCAL_TIME ( 11, 45, 16.00000000000000000, #50 ) ;
#81 = CALENDAR_DATE ( 2021, 17, 11 ) ;
#82 = EDGE_CURVE ( 'NONE', #41, #41, #70, .T. ) ;
#83 = PERSON_AND_ORGANIZATION_ROLE ( 'design_supplier' ) ;
#84 = APPLICATION_PROTOCOL_DEFINITION ( 'international standard', 'config_control_design', 1994, #113 ) ;
#85 = APPROVAL_PERSON_ORGANIZATION ( #65, #132, #39 ) ;
#86 = CARTESIAN_POINT ( 'NONE',  ( 4.538925740496073362E-14, 2.999999999999998224, 13.00000000000000000 ) ) ;
#87 = AXIS2_PLACEMENT_3D ( 'NONE', #167, #59, #108 ) ;
#88 = ADVANCED_FACE ( 'NONE', ( #111 ), #23, .F. ) ;
#89 = LOCAL_TIME ( 11, 45, 16.00000000000000000, #175 ) ;
#90 = ORIENTED_EDGE ( 'NONE', *, *, #69, .T. ) ;
#91 = DIRECTION ( 'NONE',  ( 4.275831445896958607E-31, 1.000000000000000000, 1.224646799147353207E-16 ) ) ;
#92 = AXIS2_PLACEMENT_3D ( 'NONE', #138, #149, #209 ) ;
#93 = DIRECTION ( 'NONE',  ( -4.493836536903550616E-31, -1.000000000000000000, -1.264902534566421922E-16 ) ) ;
#94 = EDGE_LOOP ( 'NONE', ( #216 ) ) ;
#95 = PLANE ( 'NONE',  #58 ) ;
#96 = DIRECTION ( 'NONE',  ( 0.0000000000000000000, 1.000000000000000000, 0.0000000000000000000 ) ) ;
#97 = PLANE ( 'NONE',  #164 ) ;
#98 = UNCERTAINTY_MEASURE_WITH_UNIT (LENGTH_MEASURE( 1.000000000000000082E-05 ), #193, 'distance_accuracy_value', 'NONE');
#99 = AXIS2_PLACEMENT_3D ( 'NONE', #61, #134, #96 ) ;
#100 = APPROVAL_STATUS ( 'not_yet_approved' ) ;
#101 = VERTEX_POINT ( 'NONE', #43 ) ;
#102 =( NAMED_UNIT ( * ) PLANE_ANGLE_UNIT ( ) SI_UNIT ( $, .RADIAN. ) );
#103 = LOCAL_TIME ( 11, 45, 16.00000000000000000, #63 ) ;
#104 = EDGE_CURVE ( 'NONE', #42, #42, #223, .T. ) ;
#105 = CC_DESIGN_APPROVAL ( #40, ( #204 ) ) ;
#106 = ORIENTED_EDGE ( 'NONE', *, *, #82, .T. ) ;
#107 = CC_DESIGN_DATE_AND_TIME_ASSIGNMENT ( #136, #26, ( #150 ) ) ;
#108 = DIRECTION ( 'NONE',  ( 4.275831445896958607E-31, 1.000000000000000000, 1.224646799147353207E-16 ) ) ;
#109 = ORIENTED_EDGE ( 'NONE', *, *, #156, .T. ) ;
#110 = FACE_OUTER_BOUND ( 'NONE', #13, .T. ) ;
#111 = FACE_OUTER_BOUND ( 'NONE', #73, .T. ) ;
#112 = PERSON_AND_ORGANIZATION ( #200, #185 ) ;
#113 = APPLICATION_CONTEXT ( 'configuration controlled 3d designs of mechanical parts and assemblies' ) ;
#114 = FACE_BOUND ( 'NONE', #147, .T. ) ;
#115 = DESIGN_CONTEXT ( 'detailed design', #123, 'design' ) ;
#116 = PERSON_AND_ORGANIZATION ( #200, #185 ) ;
#117 = CARTESIAN_POINT ( 'NONE',  ( 4.538925740496073362E-14, -1.592040838891559095E-15, 13.00000000000000000 ) ) ;
#118 = PERSON_AND_ORGANIZATION_ROLE ( 'classification_officer' ) ;
#119 = DATE_AND_TIME ( #52, #129 ) ;
#120 = AXIS2_PLACEMENT_3D ( 'NONE', #170, #17, #152 ) ;
#121 = PRODUCT_DEFINITION_SHAPE ( 'NONE', 'NONE',  #204 ) ;
#122 = PERSON_AND_ORGANIZATION ( #200, #185 ) ;
#123 = APPLICATION_CONTEXT ( 'configuration controlled 3d designs of mechanical parts and assemblies' ) ;
#124 = ADVANCED_FACE ( 'NONE', ( #1, #110 ), #66, .T. ) ;
#125 = DIRECTION ( 'NONE',  ( 1.000000000000000000, 0.0000000000000000000, 0.0000000000000000000 ) ) ;
#126 = AXIS2_PLACEMENT_3D ( 'NONE', #79, #46, #30 ) ;
#127 = CC_DESIGN_PERSON_AND_ORGANIZATION_ASSIGNMENT ( #198, #158, ( #161 ) ) ;
#128 = ADVANCED_FACE ( 'NONE', ( #219 ), #35, .T. ) ;
#129 = LOCAL_TIME ( 11, 45, 16.00000000000000000, #211 ) ;
#130 = AXIS2_PLACEMENT_3D ( 'NONE', #133, #72, #218 ) ;
#131 = MANIFOLD_SOLID_BREP ( 'Corps-Déplacer/Copier1[2]', #148 ) ;
#132 = APPROVAL ( #100, 'UNSPECIFIED' ) ;
#133 = CARTESIAN_POINT ( 'NONE',  ( 1.047444401652938626E-15, -3.653751855622630997E-17, 0.2999999999999996003 ) ) ;
#134 = DIRECTION ( 'NONE',  ( -3.491481338843133355E-15, 1.224646799147353207E-16, -1.000000000000000000 ) ) ;
#135 = FACE_OUTER_BOUND ( 'NONE', #153, .T. ) ;
#136 = DATE_AND_TIME ( #176, #89 ) ;
#137 = CIRCLE ( 'NONE', #201, 2.699999999999998845 ) ;
#138 = CARTESIAN_POINT ( 'NONE',  ( 4.538925740496073362E-14, 2.249639673992783675E-32, 13.00000000000000000 ) ) ;
#139 = EDGE_LOOP ( 'NONE', ( #168 ) ) ;
#140 = DIRECTION ( 'NONE',  ( 0.0000000000000000000, 1.000000000000000000, 0.0000000000000000000 ) ) ;
#141 = EDGE_CURVE ( 'NONE', #101, #101, #165, .T. ) ;
#142 = DIRECTION ( 'NONE',  ( 0.0000000000000000000, 0.0000000000000000000, 1.000000000000000000 ) ) ;
#143 = CC_DESIGN_PERSON_AND_ORGANIZATION_ASSIGNMENT ( #221, #83, ( #192 ) ) ;
#144 = APPLICATION_PROTOCOL_DEFINITION ( 'international standard', 'config_control_design', 1994, #123 ) ;
#145 = CIRCLE ( 'NONE', #71, 3.000000000000000000 ) ;
#146 = CARTESIAN_POINT ( 'NONE',  ( 0.0000000000000000000, 0.0000000000000000000, 0.0000000000000000000 ) ) ;
#147 = EDGE_LOOP ( 'NONE', ( #34 ) ) ;
#148 = CLOSED_SHELL ( 'NONE', ( #124, #12, #166, #128 ) ) ;
#149 = DIRECTION ( 'NONE',  ( 3.491481338843133355E-15, -1.224646799147353207E-16, 1.000000000000000000 ) ) ;
#150 = SECURITY_CLASSIFICATION ( '', '', #78 ) ;
#151 = EDGE_LOOP ( 'NONE', ( #220 ) ) ;
#152 = DIRECTION ( 'NONE',  ( 4.275831445896959482E-31, 1.000000000000000000, 1.224646799147353207E-16 ) ) ;
#153 = EDGE_LOOP ( 'NONE', ( #31 ) ) ;
#154 = DIRECTION ( 'NONE',  ( 3.491481338843133355E-15, -1.217917285207545432E-16, 1.000000000000000000 ) ) ;
#155 = SHAPE_DEFINITION_REPRESENTATION ( #121, #16 ) ;
#156 = EDGE_CURVE ( 'NONE', #213, #213, #145, .T. ) ;
#157 = DIRECTION ( 'NONE',  ( -3.491481338843133355E-15, 1.224646799147353207E-16, -1.000000000000000000 ) ) ;
#158 = PERSON_AND_ORGANIZATION_ROLE ( 'design_owner' ) ;
#159 = CC_DESIGN_PERSON_AND_ORGANIZATION_ASSIGNMENT ( #116, #118, ( #150 ) ) ;
#160 = CARTESIAN_POINT ( 'NONE',  ( 1.972686956446370283E-13, 2.999999999999992895, 56.49999999999999289 ) ) ;
#161 = PRODUCT ( '993017', '993017', '', ( #68 ) ) ;
#162 = APPROVAL_PERSON_ORGANIZATION ( #21, #25, #194 ) ;
#163 = VERTEX_POINT ( 'NONE', #160 ) ;
#164 = AXIS2_PLACEMENT_3D ( 'NONE', #203, #190, #74 ) ;
#165 = CIRCLE ( 'NONE', #44, 3.000000000000000000 ) ;
#166 = ADVANCED_FACE ( 'NONE', ( #207, #38 ), #7, .T. ) ;
#167 = CARTESIAN_POINT ( 'NONE',  ( -6.413747168845438786E-31, 2.249639673992786412E-32, -1.836970198721029934E-16 ) ) ;
#168 = ORIENTED_EDGE ( 'NONE', *, *, #178, .T. ) ;
#169 = AXIS2_PLACEMENT_3D ( 'NONE', #146, #142, #125 ) ;
#170 = CARTESIAN_POINT ( 'NONE',  ( 0.0000000000000000000, 0.0000000000000000000, 0.0000000000000000000 ) ) ;
#171 = EDGE_LOOP ( 'NONE', ( #60 ) ) ;
#172 = CALENDAR_DATE ( 2021, 17, 11 ) ;
#173 = DIRECTION ( 'NONE',  ( 3.491481338843133355E-15, -1.217917285207545432E-16, 1.000000000000000000 ) ) ;
#174 = FACE_OUTER_BOUND ( 'NONE', #184, .T. ) ;
#175 = COORDINATED_UNIVERSAL_TIME_OFFSET ( 1, 0, .AHEAD. ) ;
#176 = CALENDAR_DATE ( 2021, 17, 11 ) ;
#177 = CARTESIAN_POINT ( 'NONE',  ( -2.319826582596714405E-30, -2.699999999999998845, -6.644247405215589289E-16 ) ) ;
#178 = EDGE_CURVE ( 'NONE', #163, #163, #29, .T. ) ;
#179 = CC_DESIGN_APPROVAL ( #132, ( #192 ) ) ;
#180 = EDGE_LOOP ( 'NONE', ( #15 ) ) ;
#181 = DIRECTION ( 'NONE',  ( 0.0000000000000000000, 1.000000000000000000, 0.0000000000000000000 ) ) ;
#182 = CLOSED_SHELL ( 'NONE', ( #88, #199, #4, #37 ) ) ;
#183 = DIRECTION ( 'NONE',  ( -3.491481338843133355E-15, 1.224646799147353207E-16, -1.000000000000000000 ) ) ;
#184 = EDGE_LOOP ( 'NONE', ( #62 ) ) ;
#185 = ORGANIZATION ( 'UNSPECIFIED', 'UNSPECIFIED', '' ) ;
#186 = DIRECTION ( 'NONE',  ( -3.491481338843133355E-15, 1.224646799147353207E-16, -1.000000000000000000 ) ) ;
#187 = CARTESIAN_POINT ( 'NONE',  ( -1.171696004736423058E-30, 4.087172975267692933E-32, -3.355870735155218248E-16 ) ) ;
#188 = CALENDAR_DATE ( 2021, 17, 11 ) ;
#189 = CC_DESIGN_DATE_AND_TIME_ASSIGNMENT ( #210, #2, ( #204 ) ) ;
#190 = DIRECTION ( 'NONE',  ( 3.491481338843133355E-15, -1.224646799147353207E-16, 1.000000000000000000 ) ) ;
#191 = COORDINATED_UNIVERSAL_TIME_OFFSET ( 1, 0, .AHEAD. ) ;
#192 = PRODUCT_DEFINITION_FORMATION_WITH_SPECIFIED_SOURCE ( 'ANY', '', #161, .NOT_KNOWN. ) ;
#193 =( LENGTH_UNIT ( ) NAMED_UNIT ( * ) SI_UNIT ( .MILLI., .METRE. ) );
#194 = APPROVAL_ROLE ( '' ) ;
#195 = VERTEX_POINT ( 'NONE', #177 ) ;
#196 = CARTESIAN_POINT ( 'NONE',  ( 1.990144363140586139E-13, 2.499999999999992895, 57.00000000000000000 ) ) ;
#197 = AXIS2_PLACEMENT_3D ( 'NONE', #51, #186, #36 ) ;
#198 = PERSON_AND_ORGANIZATION ( #200, #185 ) ;
#199 = ADVANCED_FACE ( 'NONE', ( #205, #47 ), #32, .T. ) ;
#200 = PERSON ( 'UNSPECIFIED', 'UNSPECIFIED', 'UNSPECIFIED', ('UNSPECIFIED'), ('UNSPECIFIED'), ('UNSPECIFIED') ) ;
#201 = AXIS2_PLACEMENT_3D ( 'NONE', #187, #154, #77 ) ;
#202 = AXIS2_PLACEMENT_3D ( 'NONE', #48, #157, #20 ) ;
#203 = CARTESIAN_POINT ( 'NONE',  ( 4.538925740496073362E-14, 2.249639673992783675E-32, 13.00000000000000000 ) ) ;
#204 = PRODUCT_DEFINITION ( 'UNKNOWN', '', #192, #115 ) ;
#205 = FACE_OUTER_BOUND ( 'NONE', #139, .T. ) ;
#206 = CARTESIAN_POINT ( 'NONE',  ( 1.990144363140586139E-13, 1.874699728327311610E-32, 57.00000000000000000 ) ) ;
#207 = FACE_BOUND ( 'NONE', #18, .T. ) ;
#208 = ORIENTED_EDGE ( 'NONE', *, *, #156, .F. ) ;
#209 = DIRECTION ( 'NONE',  ( -4.275831445896958607E-31, -1.000000000000000000, -1.224646799147353207E-16 ) ) ;
#210 = DATE_AND_TIME ( #81, #103 ) ;
#211 = COORDINATED_UNIVERSAL_TIME_OFFSET ( 1, 0, .AHEAD. ) ;
#212 = APPROVAL_DATE_TIME ( #67, #25 ) ;
#213 = VERTEX_POINT ( 'NONE', #86 ) ;
#214 = MANIFOLD_SOLID_BREP ( 'Corps-Déplacer/Copier1[1]', #182 ) ;
#215 = CC_DESIGN_APPROVAL ( #25, ( #150 ) ) ;
#216 = ORIENTED_EDGE ( 'NONE', *, *, #178, .F. ) ;
#217 = CC_DESIGN_PERSON_AND_ORGANIZATION_ASSIGNMENT ( #112, #24, ( #192 ) ) ;
#218 = DIRECTION ( 'NONE',  ( -4.493836536903550616E-31, -1.000000000000000000, -1.264902534566421922E-16 ) ) ;
#219 = FACE_OUTER_BOUND ( 'NONE', #151, .T. ) ;
#220 = ORIENTED_EDGE ( 'NONE', *, *, #69, .F. ) ;
#221 = PERSON_AND_ORGANIZATION ( #200, #185 ) ;
#222 = CARTESIAN_POINT ( 'NONE',  ( 4.538925740496073362E-14, -1.592040838891559095E-15, 13.00000000000000000 ) ) ;
#223 = CIRCLE ( 'NONE', #202, 2.500000000000000000 ) ;
ENDSEC;
END-ISO-10303-21;
