ISO-10303-21;
HEADER;
FILE_DESCRIPTION (( 'STEP AP203' ),
    '1' );
FILE_NAME ('993003.step',
    '2021-11-17T10:45:16',
    ( '' ),
    ( '' ),
    'SwSTEP 2.0',
    'SolidWorks 2019',
    '' );
FILE_SCHEMA (( 'CONFIG_CONTROL_DESIGN' ));
ENDSEC;

DATA;
#1 = CARTESIAN_POINT ( 'NONE',  ( 0.0000000000000000000, 0.0000000000000000000, 0.0000000000000000000 ) ) ;
#2 = CARTESIAN_POINT ( 'NONE',  ( 7.681258945454893382E-14, 3.749399456654640188E-32, 22.00000000000000000 ) ) ;
#3 = DIRECTION ( 'NONE',  ( 0.0000000000000000000, 1.000000000000000000, 0.0000000000000000000 ) ) ;
#4 = PRODUCT_DEFINITION_FORMATION_WITH_SPECIFIED_SOURCE ( 'ANY', '', #178, .NOT_KNOWN. ) ;
#5 = PLANE ( 'NONE',  #61 ) ;
#6 = DIRECTION ( 'NONE',  ( 4.275831445896958607E-31, 1.000000000000000000, 1.224646799147353207E-16 ) ) ;
#7 = APPLICATION_PROTOCOL_DEFINITION ( 'international standard', 'config_control_design', 1994, #184 ) ;
#8 = DATE_TIME_ROLE ( 'creation_date' ) ;
#9 = PERSON_AND_ORGANIZATION_ROLE ( 'creator' ) ;
#10 = CARTESIAN_POINT ( 'NONE',  ( 0.0000000000000000000, 0.0000000000000000000, 0.0000000000000000000 ) ) ;
#11 = APPROVAL_PERSON_ORGANIZATION ( #216, #88, #146 ) ;
#12 = ORIENTED_EDGE ( 'NONE', *, *, #160, .F. ) ;
#13 = EDGE_LOOP ( 'NONE', ( #131 ) ) ;
#14 = CALENDAR_DATE ( 2021, 17, 11 ) ;
#15 = DIRECTION ( 'NONE',  ( -3.491481338843133355E-15, 1.224646799147353207E-16, -1.000000000000000000 ) ) ;
#16 = DATE_AND_TIME ( #113, #157 ) ;
#17 = APPLICATION_CONTEXT ( 'configuration controlled 3d designs of mechanical parts and assemblies' ) ;
#18 = EDGE_LOOP ( 'NONE', ( #115 ) ) ;
#19 = AXIS2_PLACEMENT_3D ( 'NONE', #40, #105, #3 ) ;
#20 = DIRECTION ( 'NONE',  ( 3.491481338843133355E-15, -1.217917285207545432E-16, 1.000000000000000000 ) ) ;
#21 = FACE_OUTER_BOUND ( 'NONE', #183, .T. ) ;
#22 = FACE_OUTER_BOUND ( 'NONE', #205, .T. ) ;
#23 = DIRECTION ( 'NONE',  ( 4.275831445896958607E-31, 1.000000000000000000, 1.224646799147353207E-16 ) ) ;
#24 = DIRECTION ( 'NONE',  ( -3.491481338843133355E-15, 1.224646799147353207E-16, -1.000000000000000000 ) ) ;
#25 = EDGE_CURVE ( 'NONE', #190, #190, #39, .T. ) ;
#26 = APPLICATION_PROTOCOL_DEFINITION ( 'international standard', 'config_control_design', 1994, #17 ) ;
#27 = DATE_AND_TIME ( #94, #52 ) ;
#28 = APPROVAL_PERSON_ORGANIZATION ( #143, #204, #164 ) ;
#29 = PERSON_AND_ORGANIZATION ( #175, #83 ) ;
#30 = CC_DESIGN_PERSON_AND_ORGANIZATION_ASSIGNMENT ( #78, #96, ( #178 ) ) ;
#31 = DATE_AND_TIME ( #79, #56 ) ;
#32 = SHAPE_DEFINITION_REPRESENTATION ( #66, #161 ) ;
#33 = EDGE_CURVE ( 'NONE', #106, #106, #43, .T. ) ;
#34 = SECURITY_CLASSIFICATION_LEVEL ( 'unclassified' ) ;
#35 = AXIS2_PLACEMENT_3D ( 'NONE', #60, #20, #172 ) ;
#36 = AXIS2_PLACEMENT_3D ( 'NONE', #154, #122, #174 ) ;
#37 = ORIENTED_EDGE ( 'NONE', *, *, #55, .F. ) ;
#38 = EDGE_LOOP ( 'NONE', ( #133 ) ) ;
#39 = CIRCLE ( 'NONE', #150, 4.499999999999999112 ) ;
#40 = CARTESIAN_POINT ( 'NONE',  ( 2.496409157272840412E-13, -8.756224613903574137E-15, 71.50000000000000000 ) ) ;
#41 = CARTESIAN_POINT ( 'NONE',  ( 2.513866563967056016E-13, 4.499999999999990230, 72.00000000000000000 ) ) ;
#42 = DIRECTION ( 'NONE',  ( 3.491481338843133355E-15, -1.224646799147353207E-16, 1.000000000000000000 ) ) ;
#43 = CIRCLE ( 'NONE', #194, 4.599999999999998757 ) ;
#44 = DIRECTION ( 'NONE',  ( 4.275831445896958607E-31, 1.000000000000000000, 1.224646799147353207E-16 ) ) ;
#45 = DIRECTION ( 'NONE',  ( 3.491481338843133355E-15, -1.217917285207545432E-16, 1.000000000000000000 ) ) ;
#46 = COORDINATED_UNIVERSAL_TIME_OFFSET ( 1, 0, .AHEAD. ) ;
#47 = COORDINATED_UNIVERSAL_TIME_OFFSET ( 1, 0, .AHEAD. ) ;
#48 = CC_DESIGN_PERSON_AND_ORGANIZATION_ASSIGNMENT ( #136, #186, ( #4 ) ) ;
#49 = AXIS2_PLACEMENT_3D ( 'NONE', #10, #64, #163 ) ;
#50 = ORIENTED_EDGE ( 'NONE', *, *, #25, .T. ) ;
#51 = APPROVAL_ROLE ( '' ) ;
#52 = LOCAL_TIME ( 11, 45, 16.00000000000000000, #46 ) ;
#53 = DIRECTION ( 'NONE',  ( 0.0000000000000000000, 1.000000000000000000, 0.0000000000000000000 ) ) ;
#54 = CARTESIAN_POINT ( 'NONE',  ( 2.513866563967056016E-13, 3.374459510989165933E-32, 72.00000000000000000 ) ) ;
#55 = EDGE_CURVE ( 'NONE', #166, #166, #110, .T. ) ;
#56 = LOCAL_TIME ( 11, 45, 16.00000000000000000, #218 ) ;
#57 = DIRECTION ( 'NONE',  ( -4.237045877651918877E-31, -1.000000000000000000, -1.192622389734054877E-16 ) ) ;
#58 = CYLINDRICAL_SURFACE ( 'NONE', #107, 4.999999999999999112 ) ;
#59 = ADVANCED_FACE ( 'NONE', ( #141 ), #137, .F. ) ;
#60 = CARTESIAN_POINT ( 'NONE',  ( 1.396592535537251173E-15, -4.871669140830173841E-17, 0.3999999999999993561 ) ) ;
#61 = AXIS2_PLACEMENT_3D ( 'NONE', #195, #42, #71 ) ;
#62 = PERSON_AND_ORGANIZATION ( #175, #83 ) ;
#63 = CALENDAR_DATE ( 2021, 17, 11 ) ;
#64 = DIRECTION ( 'NONE',  ( 0.0000000000000000000, 0.0000000000000000000, 1.000000000000000000 ) ) ;
#65 = APPROVAL_PERSON_ORGANIZATION ( #97, #77, #51 ) ;
#66 = PRODUCT_DEFINITION_SHAPE ( 'NONE', 'NONE',  #210 ) ;
#67 = EDGE_LOOP ( 'NONE', ( #81 ) ) ;
#68 = DIRECTION ( 'NONE',  ( -3.491481338843133355E-15, 1.224646799147353207E-16, -1.000000000000000000 ) ) ;
#69 = DIRECTION ( 'NONE',  ( 3.491481338843133355E-15, -1.224646799147353207E-16, 1.000000000000000000 ) ) ;
#70 = CC_DESIGN_APPROVAL ( #77, ( #158 ) ) ;
#71 = DIRECTION ( 'NONE',  ( -4.275831445896958607E-31, -1.000000000000000000, -1.224646799147353207E-16 ) ) ;
#72 = CC_DESIGN_DATE_AND_TIME_ASSIGNMENT ( #27, #8, ( #210 ) ) ;
#73 = DIRECTION ( 'NONE',  ( -3.491481338843133355E-15, 1.224646799147353207E-16, -1.000000000000000000 ) ) ;
#74 = DIRECTION ( 'NONE',  ( -3.491481338843133355E-15, 1.224646799147353207E-16, -1.000000000000000000 ) ) ;
#75 = CARTESIAN_POINT ( 'NONE',  ( 7.681258945454893382E-14, 4.999999999999997335, 22.00000000000000000 ) ) ;
#76 = VERTEX_POINT ( 'NONE', #165 ) ;
#77 = APPROVAL ( #148, 'UNSPECIFIED' ) ;
#78 = PERSON_AND_ORGANIZATION ( #175, #83 ) ;
#79 = CALENDAR_DATE ( 2021, 17, 11 ) ;
#80 = DATE_TIME_ROLE ( 'classification_date' ) ;
#81 = ORIENTED_EDGE ( 'NONE', *, *, #160, .T. ) ;
#82 = CC_DESIGN_PERSON_AND_ORGANIZATION_ASSIGNMENT ( #101, #168, ( #158 ) ) ;
#83 = ORGANIZATION ( 'UNSPECIFIED', 'UNSPECIFIED', '' ) ;
#84 = ORIENTED_EDGE ( 'NONE', *, *, #181, .F. ) ;
#85 = CONICAL_SURFACE ( 'NONE', #35, 5.000000000000000000, 0.7853981633974497223 ) ;
#86 = PLANE ( 'NONE',  #104 ) ;
#87 = CARTESIAN_POINT ( 'NONE',  ( 7.681258945454893382E-14, -2.694222958124176809E-15, 22.00000000000000000 ) ) ;
#88 = APPROVAL ( #128, 'UNSPECIFIED' ) ;
#89 = CONICAL_SURFACE ( 'NONE', #171, 4.999999999999999112, 0.7853981633974482790 ) ;
#90 = FACE_OUTER_BOUND ( 'NONE', #18, .T. ) ;
#91 = CARTESIAN_POINT ( 'NONE',  ( -1.068957861474239564E-30, 3.749399456654644020E-32, -3.061616997868383141E-16 ) ) ;
#92 =( NAMED_UNIT ( * ) PLANE_ANGLE_UNIT ( ) SI_UNIT ( $, .RADIAN. ) );
#93 = ADVANCED_FACE ( 'NONE', ( #211 ), #5, .F. ) ;
#94 = CALENDAR_DATE ( 2021, 17, 11 ) ;
#95 = ADVANCED_FACE ( 'NONE', ( #170, #22 ), #85, .T. ) ;
#96 = PERSON_AND_ORGANIZATION_ROLE ( 'design_owner' ) ;
#97 = PERSON_AND_ORGANIZATION ( #175, #83 ) ;
#98 = CC_DESIGN_APPROVAL ( #88, ( #4 ) ) ;
#99 = CC_DESIGN_SECURITY_CLASSIFICATION ( #158, ( #4 ) ) ;
#100 = EDGE_LOOP ( 'NONE', ( #220 ) ) ;
#101 = PERSON_AND_ORGANIZATION ( #175, #83 ) ;
#102 = DIRECTION ( 'NONE',  ( 3.491481338843133355E-15, -1.217917285207545432E-16, 1.000000000000000000 ) ) ;
#103 = ADVANCED_FACE ( 'NONE', ( #90, #118 ), #58, .T. ) ;
#104 = AXIS2_PLACEMENT_3D ( 'NONE', #2, #69, #121 ) ;
#105 = DIRECTION ( 'NONE',  ( -3.491481338843133355E-15, 1.224646799147353207E-16, -1.000000000000000000 ) ) ;
#106 = VERTEX_POINT ( 'NONE', #173 ) ;
#107 = AXIS2_PLACEMENT_3D ( 'NONE', #159, #73, #108 ) ;
#108 = DIRECTION ( 'NONE',  ( 4.275831445896958607E-31, 1.000000000000000000, 1.224646799147353207E-16 ) ) ;
#109 = ADVANCED_FACE ( 'NONE', ( #123, #155 ), #89, .T. ) ;
#110 = CIRCLE ( 'NONE', #142, 5.000000000000000000 ) ;
#111 = DATE_AND_TIME ( #63, #135 ) ;
#112 = DESIGN_CONTEXT ( 'detailed design', #184, 'design' ) ;
#113 = CALENDAR_DATE ( 2021, 17, 11 ) ;
#114 = ORIENTED_EDGE ( 'NONE', *, *, #55, .T. ) ;
#115 = ORIENTED_EDGE ( 'NONE', *, *, #221, .T. ) ;
#116 = CIRCLE ( 'NONE', #36, 5.000000000000000000 ) ;
#117 = EDGE_LOOP ( 'NONE', ( #84 ) ) ;
#118 = FACE_OUTER_BOUND ( 'NONE', #117, .T. ) ;
#119 =( GEOMETRIC_REPRESENTATION_CONTEXT ( 3 ) GLOBAL_UNCERTAINTY_ASSIGNED_CONTEXT ( ( #144 ) ) GLOBAL_UNIT_ASSIGNED_CONTEXT ( ( #127, #92, #176 ) ) REPRESENTATION_CONTEXT ( 'NONE', 'WORKASPACE' ) );
#120 = CC_DESIGN_DATE_AND_TIME_ASSIGNMENT ( #16, #80, ( #158 ) ) ;
#121 = DIRECTION ( 'NONE',  ( -4.275831445896958607E-31, -1.000000000000000000, -1.224646799147353207E-16 ) ) ;
#122 = DIRECTION ( 'NONE',  ( -3.491481338843133355E-15, 1.224646799147353207E-16, -1.000000000000000000 ) ) ;
#123 = FACE_BOUND ( 'NONE', #134, .T. ) ;
#124 = AXIS2_PLACEMENT_3D ( 'NONE', #193, #45, #57 ) ;
#125 = DIRECTION ( 'NONE',  ( 0.0000000000000000000, 1.000000000000000000, 0.0000000000000000000 ) ) ;
#126 = ADVANCED_FACE ( 'NONE', ( #140 ), #138, .T. ) ;
#127 =( LENGTH_UNIT ( ) NAMED_UNIT ( * ) SI_UNIT ( .MILLI., .METRE. ) );
#128 = APPROVAL_STATUS ( 'not_yet_approved' ) ;
#129 = VERTEX_POINT ( 'NONE', #197 ) ;
#130 = COORDINATED_UNIVERSAL_TIME_OFFSET ( 1, 0, .AHEAD. ) ;
#131 = ORIENTED_EDGE ( 'NONE', *, *, #181, .T. ) ;
#132 = MANIFOLD_SOLID_BREP ( 'Corps-Déplacer/Copier1[2]', #149 ) ;
#133 = ORIENTED_EDGE ( 'NONE', *, *, #221, .F. ) ;
#134 = EDGE_LOOP ( 'NONE', ( #50 ) ) ;
#135 = LOCAL_TIME ( 11, 45, 16.00000000000000000, #199 ) ;
#136 = PERSON_AND_ORGANIZATION ( #175, #83 ) ;
#137 = PLANE ( 'NONE',  #162 ) ;
#138 = PLANE ( 'NONE',  #219 ) ;
#139 = DIRECTION ( 'NONE',  ( -3.491481338843133355E-15, 1.224646799147353207E-16, -1.000000000000000000 ) ) ;
#140 = FACE_OUTER_BOUND ( 'NONE', #223, .T. ) ;
#141 = FACE_OUTER_BOUND ( 'NONE', #100, .T. ) ;
#142 = AXIS2_PLACEMENT_3D ( 'NONE', #87, #74, #192 ) ;
#143 = PERSON_AND_ORGANIZATION ( #175, #83 ) ;
#144 = UNCERTAINTY_MEASURE_WITH_UNIT (LENGTH_MEASURE( 1.000000000000000082E-05 ), #127, 'distance_accuracy_value', 'NONE');
#145 = PERSON_AND_ORGANIZATION_ROLE ( 'creator' ) ;
#146 = APPROVAL_ROLE ( '' ) ;
#147 = APPROVAL_STATUS ( 'not_yet_approved' ) ;
#148 = APPROVAL_STATUS ( 'not_yet_approved' ) ;
#149 = CLOSED_SHELL ( 'NONE', ( #201, #222, #95, #126 ) ) ;
#150 = AXIS2_PLACEMENT_3D ( 'NONE', #187, #15, #53 ) ;
#151 = EDGE_LOOP ( 'NONE', ( #167 ) ) ;
#152 = DATE_AND_TIME ( #14, #185 ) ;
#153 = EDGE_LOOP ( 'NONE', ( #114 ) ) ;
#154 = CARTESIAN_POINT ( 'NONE',  ( 7.681258945454893382E-14, -2.694222958124176809E-15, 22.00000000000000000 ) ) ;
#155 = FACE_OUTER_BOUND ( 'NONE', #38, .T. ) ;
#156 = FACE_OUTER_BOUND ( 'NONE', #67, .T. ) ;
#157 = LOCAL_TIME ( 11, 45, 16.00000000000000000, #47 ) ;
#158 = SECURITY_CLASSIFICATION ( '', '', #34 ) ;
#159 = CARTESIAN_POINT ( 'NONE',  ( 0.0000000000000000000, 0.0000000000000000000, 0.0000000000000000000 ) ) ;
#160 = EDGE_CURVE ( 'NONE', #129, #129, #202, .T. ) ;
#161 = ADVANCED_BREP_SHAPE_REPRESENTATION ( '993003', ( #206, #132, #49 ), #119 ) ;
#162 = AXIS2_PLACEMENT_3D ( 'NONE', #54, #139, #23 ) ;
#163 = DIRECTION ( 'NONE',  ( 1.000000000000000000, 0.0000000000000000000, 0.0000000000000000000 ) ) ;
#164 = APPROVAL_ROLE ( '' ) ;
#165 = CARTESIAN_POINT ( 'NONE',  ( 2.496409157272840412E-13, 4.999999999999990230, 71.50000000000000000 ) ) ;
#166 = VERTEX_POINT ( 'NONE', #75 ) ;
#167 = ORIENTED_EDGE ( 'NONE', *, *, #33, .T. ) ;
#168 = PERSON_AND_ORGANIZATION_ROLE ( 'classification_officer' ) ;
#169 = DIRECTION ( 'NONE',  ( -4.252335473556634944E-31, -1.000000000000000000, -1.217917285207545432E-16 ) ) ;
#170 = FACE_BOUND ( 'NONE', #151, .T. ) ;
#171 = AXIS2_PLACEMENT_3D ( 'NONE', #212, #213, #125 ) ;
#172 = DIRECTION ( 'NONE',  ( -4.237045877651918877E-31, -1.000000000000000000, -1.192622389734054877E-16 ) ) ;
#173 = CARTESIAN_POINT ( 'NONE',  ( -3.912148635672103097E-30, -4.599999999999998757, -1.120483902390941463E-15 ) ) ;
#174 = DIRECTION ( 'NONE',  ( 0.0000000000000000000, 1.000000000000000000, 0.0000000000000000000 ) ) ;
#175 = PERSON ( 'UNSPECIFIED', 'UNSPECIFIED', 'UNSPECIFIED', ('UNSPECIFIED'), ('UNSPECIFIED'), ('UNSPECIFIED') ) ;
#176 =( NAMED_UNIT ( * ) SI_UNIT ( $, .STERADIAN. ) SOLID_ANGLE_UNIT ( ) );
#177 = APPROVAL_DATE_TIME ( #111, #88 ) ;
#178 = PRODUCT ( '993003', '993003', '', ( #179 ) ) ;
#179 = MECHANICAL_CONTEXT ( 'NONE', #17, 'mechanical' ) ;
#180 = CLOSED_SHELL ( 'NONE', ( #93, #103, #109, #59 ) ) ;
#181 = EDGE_CURVE ( 'NONE', #217, #217, #116, .T. ) ;
#182 = PRODUCT_RELATED_PRODUCT_CATEGORY ( 'detail', '', ( #178 ) ) ;
#183 = EDGE_LOOP ( 'NONE', ( #37 ) ) ;
#184 = APPLICATION_CONTEXT ( 'configuration controlled 3d designs of mechanical parts and assemblies' ) ;
#185 = LOCAL_TIME ( 11, 45, 16.00000000000000000, #130 ) ;
#186 = PERSON_AND_ORGANIZATION_ROLE ( 'design_supplier' ) ;
#187 = CARTESIAN_POINT ( 'NONE',  ( 2.513866563967056016E-13, -8.817456953860941711E-15, 72.00000000000000000 ) ) ;
#188 = CARTESIAN_POINT ( 'NONE',  ( -1.956074317836051549E-30, 6.823283562593658838E-32, -5.602419511954707313E-16 ) ) ;
#189 = FACE_OUTER_BOUND ( 'NONE', #153, .T. ) ;
#190 = VERTEX_POINT ( 'NONE', #41 ) ;
#191 = CC_DESIGN_PERSON_AND_ORGANIZATION_ASSIGNMENT ( #29, #145, ( #4 ) ) ;
#192 = DIRECTION ( 'NONE',  ( 0.0000000000000000000, 1.000000000000000000, 0.0000000000000000000 ) ) ;
#193 = CARTESIAN_POINT ( 'NONE',  ( 1.396592535537251173E-15, -4.871669140830173841E-17, 0.3999999999999993561 ) ) ;
#194 = AXIS2_PLACEMENT_3D ( 'NONE', #188, #102, #169 ) ;
#195 = CARTESIAN_POINT ( 'NONE',  ( 7.681258945454893382E-14, 3.749399456654640188E-32, 22.00000000000000000 ) ) ;
#196 = CC_DESIGN_PERSON_AND_ORGANIZATION_ASSIGNMENT ( #62, #9, ( #210 ) ) ;
#197 = CARTESIAN_POINT ( 'NONE',  ( 1.396592535537249003E-15, -5.000000000000000000, 0.3999999999999987454 ) ) ;
#198 = CIRCLE ( 'NONE', #19, 4.999999999999999112 ) ;
#199 = COORDINATED_UNIVERSAL_TIME_OFFSET ( 1, 0, .AHEAD. ) ;
#200 = CARTESIAN_POINT ( 'NONE',  ( 7.681258945454893382E-14, 4.999999999999997335, 22.00000000000000000 ) ) ;
#201 = ADVANCED_FACE ( 'NONE', ( #189, #156 ), #208, .T. ) ;
#202 = CIRCLE ( 'NONE', #124, 5.000000000000000000 ) ;
#203 = APPROVAL_DATE_TIME ( #152, #77 ) ;
#204 = APPROVAL ( #147, 'UNSPECIFIED' ) ;
#205 = EDGE_LOOP ( 'NONE', ( #12 ) ) ;
#206 = MANIFOLD_SOLID_BREP ( 'Corps-Déplacer/Copier1[1]', #180 ) ;
#207 = ORIENTED_EDGE ( 'NONE', *, *, #33, .F. ) ;
#208 = CYLINDRICAL_SURFACE ( 'NONE', #214, 5.000000000000000000 ) ;
#209 = CC_DESIGN_APPROVAL ( #204, ( #210 ) ) ;
#210 = PRODUCT_DEFINITION ( 'UNKNOWN', '', #4, #112 ) ;
#211 = FACE_OUTER_BOUND ( 'NONE', #13, .T. ) ;
#212 = CARTESIAN_POINT ( 'NONE',  ( 2.496409157272840412E-13, -8.756224613903574137E-15, 71.50000000000000000 ) ) ;
#213 = DIRECTION ( 'NONE',  ( -3.491481338843133355E-15, 1.224646799147353207E-16, -1.000000000000000000 ) ) ;
#214 = AXIS2_PLACEMENT_3D ( 'NONE', #1, #68, #6 ) ;
#215 = APPROVAL_DATE_TIME ( #31, #204 ) ;
#216 = PERSON_AND_ORGANIZATION ( #175, #83 ) ;
#217 = VERTEX_POINT ( 'NONE', #200 ) ;
#218 = COORDINATED_UNIVERSAL_TIME_OFFSET ( 1, 0, .AHEAD. ) ;
#219 = AXIS2_PLACEMENT_3D ( 'NONE', #91, #24, #44 ) ;
#220 = ORIENTED_EDGE ( 'NONE', *, *, #25, .F. ) ;
#221 = EDGE_CURVE ( 'NONE', #76, #76, #198, .T. ) ;
#222 = ADVANCED_FACE ( 'NONE', ( #21 ), #86, .T. ) ;
#223 = EDGE_LOOP ( 'NONE', ( #207 ) ) ;
ENDSEC;
END-ISO-10303-21;
