ISO-10303-21;
HEADER;
FILE_DESCRIPTION (( 'STEP AP203' ),
    '1' );
FILE_NAME ('992675.step',
    '2021-11-05T15:02:28',
    ( '' ),
    ( '' ),
    'SwSTEP 2.0',
    'SolidWorks 2019',
    '' );
FILE_SCHEMA (( 'CONFIG_CONTROL_DESIGN' ));
ENDSEC;

DATA;
#1 = CYLINDRICAL_SURFACE ( 'NONE', #87, 3.999999999999998224 ) ;
#2 = LOCAL_TIME ( 16, 2, 28.00000000000000000, #50 ) ;
#3 = FACE_OUTER_BOUND ( 'NONE', #156, .T. ) ;
#4 = APPROVAL_ROLE ( '' ) ;
#5 = DIRECTION ( 'NONE',  ( -3.491481338843133355E-15, 1.224646799147353207E-16, -1.000000000000000000 ) ) ;
#6 = DIRECTION ( 'NONE',  ( 1.000000000000000000, 0.0000000000000000000, 0.0000000000000000000 ) ) ;
#7 = DIRECTION ( 'NONE',  ( -4.275831445896958607E-31, -1.000000000000000000, -1.224646799147353207E-16 ) ) ;
#8 = DATE_AND_TIME ( #165, #14 ) ;
#9 = EDGE_LOOP ( 'NONE', ( #205 ) ) ;
#10 = VERTEX_POINT ( 'NONE', #71 ) ;
#11 = SECURITY_CLASSIFICATION ( '', '', #118 ) ;
#12 = DIRECTION ( 'NONE',  ( 1.000000000000000000, 0.0000000000000000000, -3.489775742687717397E-15 ) ) ;
#13 = CALENDAR_DATE ( 2021, 5, 11 ) ;
#14 = LOCAL_TIME ( 16, 2, 28.00000000000000000, #162 ) ;
#15 = CC_DESIGN_DATE_AND_TIME_ASSIGNMENT ( #176, #220, ( #22 ) ) ;
#16 = AXIS2_PLACEMENT_3D ( 'NONE', #193, #45, #135 ) ;
#17 = FACE_OUTER_BOUND ( 'NONE', #9, .T. ) ;
#18 = VERTEX_POINT ( 'NONE', #160 ) ;
#19 = ADVANCED_FACE ( 'NONE', ( #198, #61 ), #88, .T. ) ;
#20 = CARTESIAN_POINT ( 'NONE',  ( 6.982962677686267697E-16, 0.0000000000000000000, 0.2000000000000000389 ) ) ;
#21 = APPROVAL_ROLE ( '' ) ;
#22 = PRODUCT_DEFINITION ( 'UNKNOWN', '', #207, #117 ) ;
#23 = AXIS2_PLACEMENT_3D ( 'NONE', #161, #27, #12 ) ;
#24 = VERTEX_POINT ( 'NONE', #222 ) ;
#25 = DIRECTION ( 'NONE',  ( 0.0000000000000000000, 1.000000000000000000, 0.0000000000000000000 ) ) ;
#26 = ORIENTED_EDGE ( 'NONE', *, *, #147, .T. ) ;
#27 = DIRECTION ( 'NONE',  ( 3.491481338843133355E-15, -0.0000000000000000000, 1.000000000000000000 ) ) ;
#28 = PERSON_AND_ORGANIZATION ( #171, #42 ) ;
#29 = DIRECTION ( 'NONE',  ( 3.491481338843133355E-15, -0.0000000000000000000, 1.000000000000000000 ) ) ;
#30 = ADVANCED_FACE ( 'NONE', ( #80 ), #119, .F. ) ;
#31 = PERSON_AND_ORGANIZATION ( #171, #42 ) ;
#32 = CONICAL_SURFACE ( 'NONE', #127, 4.000000000000000000, 0.7853981633974430610 ) ;
#33 = APPLICATION_CONTEXT ( 'configuration controlled 3d designs of mechanical parts and assemblies' ) ;
#34 = PRODUCT_RELATED_PRODUCT_CATEGORY ( 'detail', '', ( #158 ) ) ;
#35 = CC_DESIGN_SECURITY_CLASSIFICATION ( #11, ( #207 ) ) ;
#36 = DIRECTION ( 'NONE',  ( 3.491481338843133355E-15, -1.224646799147353207E-16, 1.000000000000000000 ) ) ;
#37 = AXIS2_PLACEMENT_3D ( 'NONE', #181, #83, #123 ) ;
#38 = CARTESIAN_POINT ( 'NONE',  ( 2.094888803305880013E-13, -7.347880794884118356E-15, 60.00000000000000000 ) ) ;
#39 =( NAMED_UNIT ( * ) PLANE_ANGLE_UNIT ( ) SI_UNIT ( $, .RADIAN. ) );
#40 = PERSON_AND_ORGANIZATION_ROLE ( 'design_owner' ) ;
#41 = DIRECTION ( 'NONE',  ( -3.491481338843133355E-15, 1.224646799147353207E-16, -1.000000000000000000 ) ) ;
#42 = ORGANIZATION ( 'UNSPECIFIED', 'UNSPECIFIED', '' ) ;
#43 = CLOSED_SHELL ( 'NONE', ( #126, #112, #129, #30 ) ) ;
#44 = CALENDAR_DATE ( 2021, 5, 11 ) ;
#45 = DIRECTION ( 'NONE',  ( 3.491481338843133355E-15, -1.224646799147353207E-16, 1.000000000000000000 ) ) ;
#46 = APPROVAL ( #170, 'UNSPECIFIED' ) ;
#47 = SHAPE_DEFINITION_REPRESENTATION ( #110, #201 ) ;
#48 = CIRCLE ( 'NONE', #68, 3.800000000000002043 ) ;
#49 = EDGE_CURVE ( 'NONE', #104, #104, #209, .T. ) ;
#50 = COORDINATED_UNIVERSAL_TIME_OFFSET ( 1, 0, .AHEAD. ) ;
#51 = CIRCLE ( 'NONE', #91, 3.500000000000001776 ) ;
#52 = EDGE_LOOP ( 'NONE', ( #26 ) ) ;
#53 = CLOSED_SHELL ( 'NONE', ( #63, #89, #19, #133 ) ) ;
#54 = CARTESIAN_POINT ( 'NONE',  ( 6.982962677686266711E-14, 2.999519565323708647E-32, 20.00000000000000000 ) ) ;
#55 = FACE_OUTER_BOUND ( 'NONE', #52, .T. ) ;
#56 = CIRCLE ( 'NONE', #23, 4.000000000000000000 ) ;
#57 = CARTESIAN_POINT ( 'NONE',  ( 0.0000000000000000000, 0.0000000000000000000, 0.0000000000000000000 ) ) ;
#58 = PERSON_AND_ORGANIZATION_ROLE ( 'creator' ) ;
#59 = PLANE ( 'NONE',  #16 ) ;
#60 = EDGE_LOOP ( 'NONE', ( #121 ) ) ;
#61 = FACE_BOUND ( 'NONE', #143, .T. ) ;
#62 = APPROVAL_PERSON_ORGANIZATION ( #120, #81, #4 ) ;
#63 = ADVANCED_FACE ( 'NONE', ( #78 ), #59, .F. ) ;
#64 = PERSON_AND_ORGANIZATION_ROLE ( 'classification_officer' ) ;
#65 = EDGE_CURVE ( 'NONE', #10, #10, #159, .T. ) ;
#66 = PERSON_AND_ORGANIZATION ( #171, #42 ) ;
#67 = ORIENTED_EDGE ( 'NONE', *, *, #65, .F. ) ;
#68 = AXIS2_PLACEMENT_3D ( 'NONE', #184, #29, #177 ) ;
#69 = ORIENTED_EDGE ( 'NONE', *, *, #186, .F. ) ;
#70 = CC_DESIGN_PERSON_AND_ORGANIZATION_ASSIGNMENT ( #74, #64, ( #11 ) ) ;
#71 = CARTESIAN_POINT ( 'NONE',  ( 6.982962677686266711E-14, 3.999999999999994227, 20.00000000000000000 ) ) ;
#72 = EDGE_CURVE ( 'NONE', #18, #18, #48, .T. ) ;
#73 = DIRECTION ( 'NONE',  ( -3.491481338843133355E-15, 1.224646799147353207E-16, -1.000000000000000000 ) ) ;
#74 = PERSON_AND_ORGANIZATION ( #171, #42 ) ;
#75 = DIRECTION ( 'NONE',  ( -3.491481338843133355E-15, 1.224646799147353207E-16, -1.000000000000000000 ) ) ;
#76 = DIRECTION ( 'NONE',  ( 3.491481338843133355E-15, -0.0000000000000000000, 1.000000000000000000 ) ) ;
#77 = PERSON_AND_ORGANIZATION ( #171, #42 ) ;
#78 = FACE_OUTER_BOUND ( 'NONE', #60, .T. ) ;
#79 = APPLICATION_CONTEXT ( 'configuration controlled 3d designs of mechanical parts and assemblies' ) ;
#80 = FACE_OUTER_BOUND ( 'NONE', #202, .T. ) ;
#81 = APPROVAL ( #102, 'UNSPECIFIED' ) ;
#82 = MECHANICAL_CONTEXT ( 'NONE', #79, 'mechanical' ) ;
#83 = DIRECTION ( 'NONE',  ( -3.491481338843133355E-15, 1.224646799147353207E-16, -1.000000000000000000 ) ) ;
#84 = ORIENTED_EDGE ( 'NONE', *, *, #217, .F. ) ;
#85 = CC_DESIGN_APPROVAL ( #81, ( #22 ) ) ;
#86 = CARTESIAN_POINT ( 'NONE',  ( 2.094888803305880013E-13, 3.499999999999994227, 60.00000000000000000 ) ) ;
#87 = AXIS2_PLACEMENT_3D ( 'NONE', #190, #73, #128 ) ;
#88 = CONICAL_SURFACE ( 'NONE', #179, 3.500000000000001776, 0.7853981633974471688 ) ;
#89 = ADVANCED_FACE ( 'NONE', ( #145, #55 ), #1, .T. ) ;
#90 = ORIENTED_EDGE ( 'NONE', *, *, #72, .T. ) ;
#91 = AXIS2_PLACEMENT_3D ( 'NONE', #38, #116, #95 ) ;
#92 = CC_DESIGN_PERSON_AND_ORGANIZATION_ASSIGNMENT ( #28, #40, ( #158 ) ) ;
#93 = MANIFOLD_SOLID_BREP ( 'Corps-Déplacer/Copier1[2]', #43 ) ;
#94 = MANIFOLD_SOLID_BREP ( 'Corps-Déplacer/Copier1[1]', #53 ) ;
#95 = DIRECTION ( 'NONE',  ( 0.0000000000000000000, 1.000000000000000000, 0.0000000000000000000 ) ) ;
#96 = FACE_BOUND ( 'NONE', #103, .T. ) ;
#97 = CALENDAR_DATE ( 2021, 5, 11 ) ;
#98 = APPROVAL_PERSON_ORGANIZATION ( #77, #210, #21 ) ;
#99 = LOCAL_TIME ( 16, 2, 28.00000000000000000, #199 ) ;
#100 = CARTESIAN_POINT ( 'NONE',  ( 4.000000000000000888, 0.0000000000000000000, 0.1999999999999860778 ) ) ;
#101 = CARTESIAN_POINT ( 'NONE',  ( -4.275794291823204623E-31, 1.499746750767059335E-32, -1.224636157797694430E-16 ) ) ;
#102 = APPROVAL_STATUS ( 'not_yet_approved' ) ;
#103 = EDGE_LOOP ( 'NONE', ( #90 ) ) ;
#104 = VERTEX_POINT ( 'NONE', #167 ) ;
#105 = APPLICATION_PROTOCOL_DEFINITION ( 'international standard', 'config_control_design', 1994, #33 ) ;
#106 = COORDINATED_UNIVERSAL_TIME_OFFSET ( 1, 0, .AHEAD. ) ;
#107 = DATE_AND_TIME ( #13, #2 ) ;
#108 = AXIS2_PLACEMENT_3D ( 'NONE', #155, #5, #25 ) ;
#109 = AXIS2_PLACEMENT_3D ( 'NONE', #101, #164, #7 ) ;
#110 = PRODUCT_DEFINITION_SHAPE ( 'NONE', 'NONE',  #22 ) ;
#111 = EDGE_LOOP ( 'NONE', ( #221 ) ) ;
#112 = ADVANCED_FACE ( 'NONE', ( #144 ), #208, .T. ) ;
#113 = AXIS2_PLACEMENT_3D ( 'NONE', #57, #174, #130 ) ;
#114 = DIRECTION ( 'NONE',  ( -4.275831445896958607E-31, -1.000000000000000000, -1.224646799147353207E-16 ) ) ;
#115 = APPROVAL_PERSON_ORGANIZATION ( #66, #46, #125 ) ;
#116 = DIRECTION ( 'NONE',  ( -3.491481338843133355E-15, 1.224646799147353207E-16, -1.000000000000000000 ) ) ;
#117 = DESIGN_CONTEXT ( 'detailed design', #33, 'design' ) ;
#118 = SECURITY_CLASSIFICATION_LEVEL ( 'unclassified' ) ;
#119 = PLANE ( 'NONE',  #109 ) ;
#120 = PERSON_AND_ORGANIZATION ( #171, #42 ) ;
#121 = ORIENTED_EDGE ( 'NONE', *, *, #49, .T. ) ;
#122 = PERSON_AND_ORGANIZATION ( #171, #42 ) ;
#123 = DIRECTION ( 'NONE',  ( 0.0000000000000000000, 1.000000000000000000, 0.0000000000000000000 ) ) ;
#124 = AXIS2_PLACEMENT_3D ( 'NONE', #54, #36, #114 ) ;
#125 = APPROVAL_ROLE ( '' ) ;
#126 = ADVANCED_FACE ( 'NONE', ( #172, #17 ), #211, .T. ) ;
#127 = AXIS2_PLACEMENT_3D ( 'NONE', #20, #76, #148 ) ;
#128 = DIRECTION ( 'NONE',  ( 4.275831445896958607E-31, 1.000000000000000000, 1.224646799147353207E-16 ) ) ;
#129 = ADVANCED_FACE ( 'NONE', ( #96, #3 ), #32, .T. ) ;
#130 = DIRECTION ( 'NONE',  ( 4.275831445896959482E-31, 1.000000000000000000, 1.224646799147353454E-16 ) ) ;
#131 = VERTEX_POINT ( 'NONE', #100 ) ;
#132 = PLANE ( 'NONE',  #173 ) ;
#133 = ADVANCED_FACE ( 'NONE', ( #215 ), #132, .F. ) ;
#134 = APPROVAL_DATE_TIME ( #212, #210 ) ;
#135 = DIRECTION ( 'NONE',  ( -4.275831445896958607E-31, -1.000000000000000000, -1.224646799147353207E-16 ) ) ;
#136 = CARTESIAN_POINT ( 'NONE',  ( 2.094888803305880013E-13, -7.347880794884118356E-15, 60.00000000000000000 ) ) ;
#137 = CARTESIAN_POINT ( 'NONE',  ( 2.094888803305880013E-13, 2.624579619658241508E-32, 60.00000000000000000 ) ) ;
#138 =( NAMED_UNIT ( * ) SI_UNIT ( $, .STERADIAN. ) SOLID_ANGLE_UNIT ( ) );
#139 = DIRECTION ( 'NONE',  ( 0.0000000000000000000, 1.000000000000000000, 0.0000000000000000000 ) ) ;
#140 = COORDINATED_UNIVERSAL_TIME_OFFSET ( 1, 0, .AHEAD. ) ;
#141 = APPROVAL_DATE_TIME ( #107, #46 ) ;
#142 =( GEOMETRIC_REPRESENTATION_CONTEXT ( 3 ) GLOBAL_UNCERTAINTY_ASSIGNED_CONTEXT ( ( #188 ) ) GLOBAL_UNIT_ASSIGNED_CONTEXT ( ( #163, #39, #138 ) ) REPRESENTATION_CONTEXT ( 'NONE', 'WORKASPACE' ) );
#143 = EDGE_LOOP ( 'NONE', ( #153 ) ) ;
#144 = FACE_OUTER_BOUND ( 'NONE', #219, .T. ) ;
#145 = FACE_OUTER_BOUND ( 'NONE', #151, .T. ) ;
#146 = LOCAL_TIME ( 16, 2, 28.00000000000000000, #140 ) ;
#147 = EDGE_CURVE ( 'NONE', #24, #24, #157, .T. ) ;
#148 = DIRECTION ( 'NONE',  ( 1.000000000000000000, 0.0000000000000000000, -3.489775742687717397E-15 ) ) ;
#149 = APPROVAL_STATUS ( 'not_yet_approved' ) ;
#150 = CARTESIAN_POINT ( 'NONE',  ( 0.0000000000000000000, 0.0000000000000000000, 0.0000000000000000000 ) ) ;
#151 = EDGE_LOOP ( 'NONE', ( #223 ) ) ;
#152 = APPROVAL_DATE_TIME ( #8, #81 ) ;
#153 = ORIENTED_EDGE ( 'NONE', *, *, #186, .T. ) ;
#154 = PERSON_AND_ORGANIZATION_ROLE ( 'design_supplier' ) ;
#155 = CARTESIAN_POINT ( 'NONE',  ( 6.982962677686266711E-14, -2.449293598294706513E-15, 20.00000000000000000 ) ) ;
#156 = EDGE_LOOP ( 'NONE', ( #84 ) ) ;
#157 = CIRCLE ( 'NONE', #197, 4.000000000000000888 ) ;
#158 = PRODUCT ( '992675', '992675', '', ( #82 ) ) ;
#159 = CIRCLE ( 'NONE', #37, 3.999999999999996447 ) ;
#160 = CARTESIAN_POINT ( 'NONE',  ( 3.800000000000002043, 0.0000000000000000000, -1.326497040634146802E-14 ) ) ;
#161 = CARTESIAN_POINT ( 'NONE',  ( 6.982962677686267697E-16, 0.0000000000000000000, 0.2000000000000000389 ) ) ;
#162 = COORDINATED_UNIVERSAL_TIME_OFFSET ( 1, 0, .AHEAD. ) ;
#163 =( LENGTH_UNIT ( ) NAMED_UNIT ( * ) SI_UNIT ( .MILLI., .METRE. ) );
#164 = DIRECTION ( 'NONE',  ( 3.491481338843133355E-15, -1.224646799147353207E-16, 1.000000000000000000 ) ) ;
#165 = CALENDAR_DATE ( 2021, 5, 11 ) ;
#166 = ORIENTED_EDGE ( 'NONE', *, *, #147, .F. ) ;
#167 = CARTESIAN_POINT ( 'NONE',  ( 6.982962677686266711E-14, 3.999999999999994227, 20.00000000000000000 ) ) ;
#168 = CC_DESIGN_DATE_AND_TIME_ASSIGNMENT ( #216, #192, ( #11 ) ) ;
#169 = PERSON_AND_ORGANIZATION_ROLE ( 'creator' ) ;
#170 = APPROVAL_STATUS ( 'not_yet_approved' ) ;
#171 = PERSON ( 'UNSPECIFIED', 'UNSPECIFIED', 'UNSPECIFIED', ('UNSPECIFIED'), ('UNSPECIFIED'), ('UNSPECIFIED') ) ;
#172 = FACE_OUTER_BOUND ( 'NONE', #111, .T. ) ;
#173 = AXIS2_PLACEMENT_3D ( 'NONE', #137, #75, #195 ) ;
#174 = DIRECTION ( 'NONE',  ( -3.491481338843133355E-15, 1.224646799147353207E-16, -1.000000000000000000 ) ) ;
#175 = DIRECTION ( 'NONE',  ( 0.0000000000000000000, 1.000000000000000000, 0.0000000000000000000 ) ) ;
#176 = DATE_AND_TIME ( #200, #185 ) ;
#177 = DIRECTION ( 'NONE',  ( 1.000000000000000000, 0.0000000000000000000, -3.491481338843133750E-15 ) ) ;
#178 = EDGE_LOOP ( 'NONE', ( #166 ) ) ;
#179 = AXIS2_PLACEMENT_3D ( 'NONE', #136, #41, #139 ) ;
#180 = VERTEX_POINT ( 'NONE', #86 ) ;
#181 = CARTESIAN_POINT ( 'NONE',  ( 6.982962677686266711E-14, -2.449293598294706513E-15, 20.00000000000000000 ) ) ;
#182 = ORIENTED_EDGE ( 'NONE', *, *, #72, .F. ) ;
#183 = PERSON_AND_ORGANIZATION ( #171, #42 ) ;
#184 = CARTESIAN_POINT ( 'NONE',  ( 9.282736013759573753E-33, 0.0000000000000000000, 2.658681262445272886E-18 ) ) ;
#185 = LOCAL_TIME ( 16, 2, 28.00000000000000000, #106 ) ;
#186 = EDGE_CURVE ( 'NONE', #180, #180, #51, .T. ) ;
#187 = CC_DESIGN_PERSON_AND_ORGANIZATION_ASSIGNMENT ( #183, #154, ( #207 ) ) ;
#188 = UNCERTAINTY_MEASURE_WITH_UNIT (LENGTH_MEASURE( 1.000000000000000082E-05 ), #163, 'distance_accuracy_value', 'NONE');
#189 = CC_DESIGN_APPROVAL ( #46, ( #11 ) ) ;
#190 = CARTESIAN_POINT ( 'NONE',  ( 0.0000000000000000000, 0.0000000000000000000, 0.0000000000000000000 ) ) ;
#191 = CARTESIAN_POINT ( 'NONE',  ( 2.077431396611664157E-13, -7.286648454926750781E-15, 59.50000000000000000 ) ) ;
#192 = DATE_TIME_ROLE ( 'classification_date' ) ;
#193 = CARTESIAN_POINT ( 'NONE',  ( 6.982962677686266711E-14, 2.999519565323708647E-32, 20.00000000000000000 ) ) ;
#194 = EDGE_LOOP ( 'NONE', ( #69 ) ) ;
#195 = DIRECTION ( 'NONE',  ( 4.275831445896958607E-31, 1.000000000000000000, 1.224646799147353207E-16 ) ) ;
#196 = APPLICATION_PROTOCOL_DEFINITION ( 'international standard', 'config_control_design', 1994, #79 ) ;
#197 = AXIS2_PLACEMENT_3D ( 'NONE', #191, #214, #175 ) ;
#198 = FACE_OUTER_BOUND ( 'NONE', #178, .T. ) ;
#199 = COORDINATED_UNIVERSAL_TIME_OFFSET ( 1, 0, .AHEAD. ) ;
#200 = CALENDAR_DATE ( 2021, 5, 11 ) ;
#201 = ADVANCED_BREP_SHAPE_REPRESENTATION ( '992675', ( #94, #93, #204 ), #142 ) ;
#202 = EDGE_LOOP ( 'NONE', ( #182 ) ) ;
#203 = CC_DESIGN_PERSON_AND_ORGANIZATION_ASSIGNMENT ( #122, #58, ( #207 ) ) ;
#204 = AXIS2_PLACEMENT_3D ( 'NONE', #150, #218, #6 ) ;
#205 = ORIENTED_EDGE ( 'NONE', *, *, #217, .T. ) ;
#206 = CC_DESIGN_PERSON_AND_ORGANIZATION_ASSIGNMENT ( #31, #169, ( #22 ) ) ;
#207 = PRODUCT_DEFINITION_FORMATION_WITH_SPECIFIED_SOURCE ( 'ANY', '', #158, .NOT_KNOWN. ) ;
#208 = PLANE ( 'NONE',  #124 ) ;
#209 = CIRCLE ( 'NONE', #108, 3.999999999999996447 ) ;
#210 = APPROVAL ( #149, 'UNSPECIFIED' ) ;
#211 = CYLINDRICAL_SURFACE ( 'NONE', #113, 3.999999999999994671 ) ;
#212 = DATE_AND_TIME ( #44, #99 ) ;
#213 = CC_DESIGN_APPROVAL ( #210, ( #207 ) ) ;
#214 = DIRECTION ( 'NONE',  ( -3.491481338843133355E-15, 1.224646799147353207E-16, -1.000000000000000000 ) ) ;
#215 = FACE_OUTER_BOUND ( 'NONE', #194, .T. ) ;
#216 = DATE_AND_TIME ( #97, #146 ) ;
#217 = EDGE_CURVE ( 'NONE', #131, #131, #56, .T. ) ;
#218 = DIRECTION ( 'NONE',  ( 0.0000000000000000000, 0.0000000000000000000, 1.000000000000000000 ) ) ;
#219 = EDGE_LOOP ( 'NONE', ( #67 ) ) ;
#220 = DATE_TIME_ROLE ( 'creation_date' ) ;
#221 = ORIENTED_EDGE ( 'NONE', *, *, #65, .T. ) ;
#222 = CARTESIAN_POINT ( 'NONE',  ( 2.077431396611664157E-13, 3.999999999999994227, 59.50000000000000000 ) ) ;
#223 = ORIENTED_EDGE ( 'NONE', *, *, #49, .F. ) ;
ENDSEC;
END-ISO-10303-21;
