ISO-10303-21;
HEADER;
FILE_DESCRIPTION (( 'STEP AP203' ),
    '1' );
FILE_NAME ('992522.step',
    '2021-12-17T12:52:46',
    ( '' ),
    ( '' ),
    'SwSTEP 2.0',
    'SolidWorks 2019',
    '' );
FILE_SCHEMA (( 'CONFIG_CONTROL_DESIGN' ));
ENDSEC;

DATA;
#1 = PRODUCT_DEFINITION ( 'UNKNOWN', '', #130, #154 ) ;
#2 = CC_DESIGN_SECURITY_CLASSIFICATION ( #236, ( #130 ) ) ;
#3 = EDGE_LOOP ( 'NONE', ( #209 ) ) ;
#4 = ORIENTED_EDGE ( 'NONE', *, *, #47, .T. ) ;
#5 = CYLINDRICAL_SURFACE ( 'NONE', #85, 0.7229999999999996430 ) ;
#6 = DIRECTION ( 'NONE',  ( 0.0000000000000000000, 1.000000000000000000, 0.0000000000000000000 ) ) ;
#7 = DIRECTION ( 'NONE',  ( -3.491481338843133355E-15, 1.224646799147353207E-16, -1.000000000000000000 ) ) ;
#8 = SECURITY_CLASSIFICATION_LEVEL ( 'unclassified' ) ;
#9 = MANIFOLD_SOLID_BREP ( 'Corps-Déplacer/Copier1[2]', #174 ) ;
#10 = DIRECTION ( 'NONE',  ( -3.491481338843133355E-15, 1.224646799147353207E-16, -1.000000000000000000 ) ) ;
#11 = CALENDAR_DATE ( 2021, 17, 12 ) ;
#12 = CIRCLE ( 'NONE', #178, 0.2950000000000000400 ) ;
#13 = DIRECTION ( 'NONE',  ( -3.491481338843133355E-15, 1.224646799147353207E-16, -1.000000000000000000 ) ) ;
#14 = CARTESIAN_POINT ( 'NONE',  ( 1.955229549752154679E-14, 0.7229999999999991989, 5.599999999999999645 ) ) ;
#15 = CIRCLE ( 'NONE', #271, 0.6000000000000009770 ) ;
#16 = CARTESIAN_POINT ( 'NONE',  ( 1.326762908760390423E-13, 0.5999999999999963141, 38.00000000000000000 ) ) ;
#17 = PERSON_AND_ORGANIZATION ( #298, #166 ) ;
#18 = CC_DESIGN_PERSON_AND_ORGANIZATION_ASSIGNMENT ( #42, #147, ( #130 ) ) ;
#19 = LOCAL_TIME ( 13, 52, 46.00000000000000000, #97 ) ;
#20 = ORIENTED_EDGE ( 'NONE', *, *, #161, .T. ) ;
#21 = ADVANCED_FACE ( 'NONE', ( #59, #62 ), #233, .T. ) ;
#22 = ORIENTED_EDGE ( 'NONE', *, *, #158, .T. ) ;
#23 = DIRECTION ( 'NONE',  ( 4.275831445896958607E-31, 1.000000000000000000, 1.224646799147353207E-16 ) ) ;
#24 = ADVANCED_FACE ( 'NONE', ( #164, #281 ), #65, .F. ) ;
#25 = CARTESIAN_POINT ( 'NONE',  ( 0.0000000000000000000, 0.0000000000000000000, 0.0000000000000000000 ) ) ;
#26 = LOCAL_TIME ( 13, 52, 46.00000000000000000, #199 ) ;
#27 = APPROVAL_DATE_TIME ( #44, #254 ) ;
#28 = CARTESIAN_POINT ( 'NONE',  ( 1.955229549752154679E-14, -6.858022075225177566E-16, 5.599999999999999645 ) ) ;
#29 = DIRECTION ( 'NONE',  ( -3.491481338843133355E-15, 1.224646799147353207E-16, -1.000000000000000000 ) ) ;
#30 = CALENDAR_DATE ( 2021, 17, 12 ) ;
#31 = FACE_OUTER_BOUND ( 'NONE', #92, .T. ) ;
#32 = DIRECTION ( 'NONE',  ( 3.491481338843133355E-15, -1.224646799147353207E-16, 1.000000000000000000 ) ) ;
#33 = DIRECTION ( 'NONE',  ( 0.0000000000000000000, 1.000000000000000000, 0.0000000000000000000 ) ) ;
#34 = CLOSED_SHELL ( 'NONE', ( #231, #21, #24, #52, #113, #134, #169 ) ) ;
#35 = CARTESIAN_POINT ( 'NONE',  ( 2.455355575792824984E-14, 0.7499999999999953371, 7.032417869391739629 ) ) ;
#36 = CARTESIAN_POINT ( 'NONE',  ( 1.955229549752154679E-14, 0.7229999999999991989, 5.599999999999999645 ) ) ;
#37 = MECHANICAL_CONTEXT ( 'NONE', #115, 'mechanical' ) ;
#38 = EDGE_LOOP ( 'NONE', ( #20 ) ) ;
#39 = AXIS2_PLACEMENT_3D ( 'NONE', #241, #122, #127 ) ;
#40 = EDGE_LOOP ( 'NONE', ( #165 ) ) ;
#41 = DIRECTION ( 'NONE',  ( -3.491481338843133355E-15, 1.224646799147353207E-16, -1.000000000000000000 ) ) ;
#42 = PERSON_AND_ORGANIZATION ( #298, #166 ) ;
#43 = FACE_BOUND ( 'NONE', #88, .T. ) ;
#44 = DATE_AND_TIME ( #30, #253 ) ;
#45 = DIRECTION ( 'NONE',  ( 3.491481338843133355E-15, -1.224646799147353207E-16, 1.000000000000000000 ) ) ;
#46 = COORDINATED_UNIVERSAL_TIME_OFFSET ( 1, 0, .AHEAD. ) ;
#47 = EDGE_CURVE ( 'NONE', #273, #273, #210, .T. ) ;
#48 = FACE_BOUND ( 'NONE', #137, .T. ) ;
#49 = DIRECTION ( 'NONE',  ( -3.491481338843133355E-15, 1.224646799147353207E-16, -1.000000000000000000 ) ) ;
#50 = AXIS2_PLACEMENT_3D ( 'NONE', #60, #186, #230 ) ;
#51 = AXIS2_PLACEMENT_3D ( 'NONE', #81, #32, #244 ) ;
#52 = ADVANCED_FACE ( 'NONE', ( #198, #48 ), #116, .F. ) ;
#53 = DIRECTION ( 'NONE',  ( -3.491481338843133355E-15, 1.224646799147353207E-16, -1.000000000000000000 ) ) ;
#54 = CARTESIAN_POINT ( 'NONE',  ( 1.892735826383161356E-31, 0.2950000000000000400, 5.421010862427522170E-17 ) ) ;
#55 = AXIS2_PLACEMENT_3D ( 'NONE', #260, #7, #191 ) ;
#56 = CIRCLE ( 'NONE', #155, 0.7229999999999993099 ) ;
#57 = VERTEX_POINT ( 'NONE', #246 ) ;
#58 = PERSON_AND_ORGANIZATION ( #298, #166 ) ;
#59 = FACE_OUTER_BOUND ( 'NONE', #207, .T. ) ;
#60 = CARTESIAN_POINT ( 'NONE',  ( 0.0000000000000000000, 0.0000000000000000000, 0.0000000000000000000 ) ) ;
#61 = CC_DESIGN_APPROVAL ( #117, ( #130 ) ) ;
#62 = FACE_OUTER_BOUND ( 'NONE', #40, .T. ) ;
#63 = ORIENTED_EDGE ( 'NONE', *, *, #75, .T. ) ;
#64 = CC_DESIGN_PERSON_AND_ORGANIZATION_ASSIGNMENT ( #58, #87, ( #93 ) ) ;
#65 = TOROIDAL_SURFACE ( 'NONE', #100, 1.723000000000000087, 1.000000000000000222 ) ;
#66 = APPROVAL_PERSON_ORGANIZATION ( #78, #105, #95 ) ;
#67 = PLANE ( 'NONE',  #290 ) ;
#68 = DATE_AND_TIME ( #11, #248 ) ;
#69 = FACE_OUTER_BOUND ( 'NONE', #38, .T. ) ;
#70 = DIRECTION ( 'NONE',  ( 0.0000000000000000000, 1.000000000000000000, 0.0000000000000000000 ) ) ;
#71 = COORDINATED_UNIVERSAL_TIME_OFFSET ( 1, 0, .AHEAD. ) ;
#72 = CIRCLE ( 'NONE', #243, 0.7499999999999962252 ) ;
#73 = DIRECTION ( 'NONE',  ( 4.275831445896958607E-31, 1.000000000000000000, 1.224646799147353207E-16 ) ) ;
#74 = APPROVAL_PERSON_ORGANIZATION ( #17, #254, #263 ) ;
#75 = EDGE_CURVE ( 'NONE', #297, #297, #72, .T. ) ;
#76 = PERSON_AND_ORGANIZATION_ROLE ( 'design_supplier' ) ;
#77 = FACE_OUTER_BOUND ( 'NONE', #303, .T. ) ;
#78 = PERSON_AND_ORGANIZATION ( #298, #166 ) ;
#79 = DIRECTION ( 'NONE',  ( -4.275831445896958607E-31, -1.000000000000000000, -1.224646799147353207E-16 ) ) ;
#80 = ADVANCED_FACE ( 'NONE', ( #223 ), #67, .T. ) ;
#81 = CARTESIAN_POINT ( 'NONE',  ( 7.070102996307248129E-16, -2.479858307631295618E-17, 0.2024957979196834179 ) ) ;
#82 = AXIS2_PLACEMENT_3D ( 'NONE', #249, #49, #224 ) ;
#83 = VERTEX_POINT ( 'NONE', #54 ) ;
#84 = CARTESIAN_POINT ( 'NONE',  ( 1.321525686752126196E-13, 0.7499999999999964473, 37.85000000000000853 ) ) ;
#85 = AXIS2_PLACEMENT_3D ( 'NONE', #25, #13, #262 ) ;
#86 = AXIS2_PLACEMENT_3D ( 'NONE', #250, #205, #132 ) ;
#87 = PERSON_AND_ORGANIZATION_ROLE ( 'design_owner' ) ;
#88 = EDGE_LOOP ( 'NONE', ( #280 ) ) ;
#89 = CC_DESIGN_DATE_AND_TIME_ASSIGNMENT ( #173, #151, ( #1 ) ) ;
#90 = EDGE_LOOP ( 'NONE', ( #135 ) ) ;
#91 = ORIENTED_EDGE ( 'NONE', *, *, #161, .F. ) ;
#92 = EDGE_LOOP ( 'NONE', ( #232 ) ) ;
#93 = PRODUCT ( '992522', '992522', '', ( #37 ) ) ;
#94 = EDGE_LOOP ( 'NONE', ( #119 ) ) ;
#95 = APPROVAL_ROLE ( '' ) ;
#96 = DIRECTION ( 'NONE',  ( 3.491481338843133355E-15, -1.224646799147353207E-16, 1.000000000000000000 ) ) ;
#97 = COORDINATED_UNIVERSAL_TIME_OFFSET ( 1, 0, .AHEAD. ) ;
#98 = PRODUCT_RELATED_PRODUCT_CATEGORY ( 'detail', '', ( #93 ) ) ;
#99 = CARTESIAN_POINT ( 'NONE',  ( 1.326762908760390423E-13, -4.653657836759941941E-15, 38.00000000000000000 ) ) ;
#100 = AXIS2_PLACEMENT_3D ( 'NONE', #152, #145, #73 ) ;
#101 = CIRCLE ( 'NONE', #203, 0.7570741737109280001 ) ;
#102 = CARTESIAN_POINT ( 'NONE',  ( 2.455355575792824984E-14, -8.612228034017244263E-16, 7.032417869391739629 ) ) ;
#103 = VERTEX_POINT ( 'NONE', #200 ) ;
#104 = UNCERTAINTY_MEASURE_WITH_UNIT (LENGTH_MEASURE( 1.000000000000000082E-05 ), #129, 'distance_accuracy_value', 'NONE');
#105 = APPROVAL ( #285, 'UNSPECIFIED' ) ;
#106 = VERTEX_POINT ( 'NONE', #36 ) ;
#107 = FACE_OUTER_BOUND ( 'NONE', #302, .T. ) ;
#108 = LOCAL_TIME ( 13, 52, 46.00000000000000000, #46 ) ;
#109 = MANIFOLD_SOLID_BREP ( 'Corps-Déplacer/Copier1[1]', #34 ) ;
#110 = APPROVAL_STATUS ( 'not_yet_approved' ) ;
#111 = AXIS2_PLACEMENT_3D ( 'NONE', #102, #45, #235 ) ;
#112 = CONICAL_SURFACE ( 'NONE', #51, 0.6457330103160879853, 1.047197551196592968 ) ;
#113 = ADVANCED_FACE ( 'NONE', ( #172, #124 ), #221, .T. ) ;
#114 = EDGE_LOOP ( 'NONE', ( #4 ) ) ;
#115 = APPLICATION_CONTEXT ( 'configuration controlled 3d designs of mechanical parts and assemblies' ) ;
#116 = CONICAL_SURFACE ( 'NONE', #111, 0.7499999999999962252, 0.2617993877991354745 ) ;
#117 = APPROVAL ( #266, 'UNSPECIFIED' ) ;
#118 = ORIENTED_EDGE ( 'NONE', *, *, #47, .F. ) ;
#119 = ORIENTED_EDGE ( 'NONE', *, *, #182, .F. ) ;
#120 = PLANE ( 'NONE',  #184 ) ;
#121 = CC_DESIGN_APPROVAL ( #254, ( #1 ) ) ;
#122 = DIRECTION ( 'NONE',  ( -3.491481338843133355E-15, 1.224646799147353207E-16, -1.000000000000000000 ) ) ;
#123 = FACE_OUTER_BOUND ( 'NONE', #162, .T. ) ;
#124 = FACE_OUTER_BOUND ( 'NONE', #3, .T. ) ;
#125 = CIRCLE ( 'NONE', #163, 0.7229999999999998650 ) ;
#126 = EDGE_CURVE ( 'NONE', #204, #204, #189, .T. ) ;
#127 = DIRECTION ( 'NONE',  ( 4.473822571292633766E-31, 1.000000000000000000, 1.259269104062201232E-16 ) ) ;
#128 = DIRECTION ( 'NONE',  ( -3.491481338843133355E-15, 1.224646799147353207E-16, -1.000000000000000000 ) ) ;
#129 =( LENGTH_UNIT ( ) NAMED_UNIT ( * ) SI_UNIT ( .MILLI., .METRE. ) );
#130 = PRODUCT_DEFINITION_FORMATION_WITH_SPECIFIED_SOURCE ( 'ANY', '', #93, .NOT_KNOWN. ) ;
#131 = ADVANCED_FACE ( 'NONE', ( #31, #123 ), #5, .T. ) ;
#132 = DIRECTION ( 'NONE',  ( -4.275831445896958607E-31, -1.000000000000000000, -1.224646799147353207E-16 ) ) ;
#133 = APPLICATION_PROTOCOL_DEFINITION ( 'international standard', 'config_control_design', 1994, #197 ) ;
#134 = ADVANCED_FACE ( 'NONE', ( #177, #43 ), #211, .T. ) ;
#135 = ORIENTED_EDGE ( 'NONE', *, *, #296, .F. ) ;
#136 =( GEOMETRIC_REPRESENTATION_CONTEXT ( 3 ) GLOBAL_UNCERTAINTY_ASSIGNED_CONTEXT ( ( #104 ) ) GLOBAL_UNIT_ASSIGNED_CONTEXT ( ( #129, #245, #159 ) ) REPRESENTATION_CONTEXT ( 'NONE', 'WORKASPACE' ) );
#137 = EDGE_LOOP ( 'NONE', ( #63 ) ) ;
#138 = PRODUCT_DEFINITION_SHAPE ( 'NONE', 'NONE',  #1 ) ;
#139 = ORIENTED_EDGE ( 'NONE', *, *, #158, .F. ) ;
#140 = CC_DESIGN_DATE_AND_TIME_ASSIGNMENT ( #261, #188, ( #236 ) ) ;
#141 = ORIENTED_EDGE ( 'NONE', *, *, #247, .T. ) ;
#142 = AXIS2_PLACEMENT_3D ( 'NONE', #187, #29, #150 ) ;
#143 = AXIS2_PLACEMENT_3D ( 'NONE', #216, #284, #239 ) ;
#144 = EDGE_LOOP ( 'NONE', ( #139 ) ) ;
#145 = DIRECTION ( 'NONE',  ( -3.491481338843133355E-15, 1.224646799147353207E-16, -1.000000000000000000 ) ) ;
#146 = CARTESIAN_POINT ( 'NONE',  ( 1.326762908760390423E-13, 4.499279347985510559E-33, 38.00000000000000000 ) ) ;
#147 = PERSON_AND_ORGANIZATION_ROLE ( 'creator' ) ;
#148 = CARTESIAN_POINT ( 'NONE',  ( 6.313655498435586200E-32, -2.214532241962417876E-33, 1.808302804942830197E-17 ) ) ;
#149 = PERSON_AND_ORGANIZATION ( #298, #166 ) ;
#150 = DIRECTION ( 'NONE',  ( 4.275831445896959482E-31, 1.000000000000000000, 1.224646799147353207E-16 ) ) ;
#151 = DATE_TIME_ROLE ( 'creation_date' ) ;
#152 = CARTESIAN_POINT ( 'NONE',  ( 2.374207310413330366E-14, -8.673617379884035472E-16, 6.799999999999998934 ) ) ;
#153 = PERSON_AND_ORGANIZATION ( #298, #166 ) ;
#154 = DESIGN_CONTEXT ( 'detailed design', #197, 'design' ) ;
#155 = AXIS2_PLACEMENT_3D ( 'NONE', #228, #53, #269 ) ;
#156 = PLANE ( 'NONE',  #86 ) ;
#157 = CARTESIAN_POINT ( 'NONE',  ( 2.464573497024590740E-14, -8.644560149345161404E-16, 7.058819045102507239 ) ) ;
#158 = EDGE_CURVE ( 'NONE', #57, #57, #258, .T. ) ;
#159 =( NAMED_UNIT ( * ) SI_UNIT ( $, .STERADIAN. ) SOLID_ANGLE_UNIT ( ) );
#160 = DIRECTION ( 'NONE',  ( 0.0000000000000000000, 1.000000000000000000, 0.0000000000000000000 ) ) ;
#161 = EDGE_CURVE ( 'NONE', #83, #83, #12, .T. ) ;
#162 = EDGE_LOOP ( 'NONE', ( #183 ) ) ;
#163 = AXIS2_PLACEMENT_3D ( 'NONE', #28, #218, #195 ) ;
#164 = FACE_OUTER_BOUND ( 'NONE', #185, .T. ) ;
#165 = ORIENTED_EDGE ( 'NONE', *, *, #277, .T. ) ;
#166 = ORGANIZATION ( 'UNSPECIFIED', 'UNSPECIFIED', '' ) ;
#167 = CARTESIAN_POINT ( 'NONE',  ( 1.955229549752154679E-14, 5.421631614322605290E-33, 5.599999999999999645 ) ) ;
#168 = CALENDAR_DATE ( 2021, 17, 12 ) ;
#169 = ADVANCED_FACE ( 'NONE', ( #237 ), #120, .F. ) ;
#170 = DIRECTION ( 'NONE',  ( -4.275831445896958607E-31, -1.000000000000000000, -1.224646799147353207E-16 ) ) ;
#171 = CALENDAR_DATE ( 2021, 17, 12 ) ;
#172 = FACE_OUTER_BOUND ( 'NONE', #229, .T. ) ;
#173 = DATE_AND_TIME ( #168, #26 ) ;
#174 = CLOSED_SHELL ( 'NONE', ( #208, #225, #202, #131, #80 ) ) ;
#175 = CARTESIAN_POINT ( 'NONE',  ( 3.156827749217793100E-32, -1.107266120981208938E-33, 9.041514024714150983E-18 ) ) ;
#176 = SHAPE_DEFINITION_REPRESENTATION ( #138, #213 ) ;
#177 = FACE_OUTER_BOUND ( 'NONE', #259, .T. ) ;
#178 = AXIS2_PLACEMENT_3D ( 'NONE', #148, #10, #234 ) ;
#179 = VERTEX_POINT ( 'NONE', #295 ) ;
#180 = DIRECTION ( 'NONE',  ( -3.491481338843133355E-15, 1.224646799147353207E-16, -1.000000000000000000 ) ) ;
#181 = FACE_OUTER_BOUND ( 'NONE', #114, .T. ) ;
#182 = EDGE_CURVE ( 'NONE', #106, #106, #125, .T. ) ;
#183 = ORIENTED_EDGE ( 'NONE', *, *, #182, .T. ) ;
#184 = AXIS2_PLACEMENT_3D ( 'NONE', #146, #282, #23 ) ;
#185 = EDGE_LOOP ( 'NONE', ( #212 ) ) ;
#186 = DIRECTION ( 'NONE',  ( -3.491481338843133355E-15, 1.224646799147353207E-16, -1.000000000000000000 ) ) ;
#187 = CARTESIAN_POINT ( 'NONE',  ( 0.0000000000000000000, 0.0000000000000000000, 0.0000000000000000000 ) ) ;
#188 = DATE_TIME_ROLE ( 'classification_date' ) ;
#189 = CIRCLE ( 'NONE', #55, 0.7500000000000011102 ) ;
#190 = AXIS2_PLACEMENT_3D ( 'NONE', #99, #41, #6 ) ;
#191 = DIRECTION ( 'NONE',  ( 0.0000000000000000000, 1.000000000000000000, 0.0000000000000000000 ) ) ;
#192 = CARTESIAN_POINT ( 'NONE',  ( 1.955229549752154679E-14, -6.858022075225177566E-16, 5.599999999999999645 ) ) ;
#193 = APPROVAL_ROLE ( '' ) ;
#194 = CC_DESIGN_PERSON_AND_ORGANIZATION_ASSIGNMENT ( #287, #268, ( #1 ) ) ;
#195 = DIRECTION ( 'NONE',  ( 0.0000000000000000000, 1.000000000000000000, 0.0000000000000000000 ) ) ;
#196 = DATE_AND_TIME ( #219, #108 ) ;
#197 = APPLICATION_CONTEXT ( 'configuration controlled 3d designs of mechanical parts and assemblies' ) ;
#198 = FACE_OUTER_BOUND ( 'NONE', #276, .T. ) ;
#199 = COORDINATED_UNIVERSAL_TIME_OFFSET ( 1, 0, .AHEAD. ) ;
#200 = CARTESIAN_POINT ( 'NONE',  ( 2.374207310413330366E-14, 0.7229999999999991989, 6.799999999999999822 ) ) ;
#201 = VERTEX_POINT ( 'NONE', #294 ) ;
#202 = ADVANCED_FACE ( 'NONE', ( #220, #77 ), #222, .T. ) ;
#203 = AXIS2_PLACEMENT_3D ( 'NONE', #157, #128, #160 ) ;
#204 = VERTEX_POINT ( 'NONE', #84 ) ;
#205 = DIRECTION ( 'NONE',  ( 3.491481338843133355E-15, -1.224646799147353207E-16, 1.000000000000000000 ) ) ;
#206 = APPROVAL_PERSON_ORGANIZATION ( #289, #117, #193 ) ;
#207 = EDGE_LOOP ( 'NONE', ( #118 ) ) ;
#208 = ADVANCED_FACE ( 'NONE', ( #69 ), #288, .F. ) ;
#209 = ORIENTED_EDGE ( 'NONE', *, *, #126, .T. ) ;
#210 = CIRCLE ( 'NONE', #270, 0.7229999999999998650 ) ;
#211 = CONICAL_SURFACE ( 'NONE', #190, 0.6000000000000009770, 0.7853981633974803644 ) ;
#212 = ORIENTED_EDGE ( 'NONE', *, *, #277, .F. ) ;
#213 = ADVANCED_BREP_SHAPE_REPRESENTATION ( '992522', ( #109, #9, #291 ), #136 ) ;
#214 = ORIENTED_EDGE ( 'NONE', *, *, #75, .F. ) ;
#215 = CC_DESIGN_PERSON_AND_ORGANIZATION_ASSIGNMENT ( #149, #76, ( #130 ) ) ;
#216 = CARTESIAN_POINT ( 'NONE',  ( 2.094888803305879619E-15, -7.347880794884117764E-17, 0.5999999999999999778 ) ) ;
#217 = COORDINATED_UNIVERSAL_TIME_OFFSET ( 1, 0, .AHEAD. ) ;
#218 = DIRECTION ( 'NONE',  ( -3.491481338843133355E-15, 1.224646799147353207E-16, -1.000000000000000000 ) ) ;
#219 = CALENDAR_DATE ( 2021, 17, 12 ) ;
#220 = FACE_BOUND ( 'NONE', #144, .T. ) ;
#221 = CYLINDRICAL_SURFACE ( 'NONE', #142, 0.7499999999999986677 ) ;
#222 = CONICAL_SURFACE ( 'NONE', #143, 0.7229999999999993099, 0.1919862177193698838 ) ;
#223 = FACE_OUTER_BOUND ( 'NONE', #94, .T. ) ;
#224 = DIRECTION ( 'NONE',  ( 0.0000000000000000000, 1.000000000000000000, 0.0000000000000000000 ) ) ;
#225 = ADVANCED_FACE ( 'NONE', ( #275, #107 ), #112, .T. ) ;
#226 = APPLICATION_PROTOCOL_DEFINITION ( 'international standard', 'config_control_design', 1994, #115 ) ;
#227 = CARTESIAN_POINT ( 'NONE',  ( 1.326762908760390423E-13, -4.653657836759941941E-15, 38.00000000000000000 ) ) ;
#228 = CARTESIAN_POINT ( 'NONE',  ( 2.094888803305879619E-15, -7.347880794884117764E-17, 0.5999999999999999778 ) ) ;
#229 = EDGE_LOOP ( 'NONE', ( #214 ) ) ;
#230 = DIRECTION ( 'NONE',  ( 4.275831445896958607E-31, 1.000000000000000000, 1.224646799147353207E-16 ) ) ;
#231 = ADVANCED_FACE ( 'NONE', ( #181 ), #156, .F. ) ;
#232 = ORIENTED_EDGE ( 'NONE', *, *, #247, .F. ) ;
#233 = CYLINDRICAL_SURFACE ( 'NONE', #50, 0.7229999999999999760 ) ;
#234 = DIRECTION ( 'NONE',  ( 4.275831445896957731E-31, 1.000000000000000000, 1.224646799147352961E-16 ) ) ;
#235 = DIRECTION ( 'NONE',  ( 0.0000000000000000000, -1.000000000000000000, 0.0000000000000000000 ) ) ;
#236 = SECURITY_CLASSIFICATION ( '', '', #8 ) ;
#237 = FACE_OUTER_BOUND ( 'NONE', #90, .T. ) ;
#238 = CC_DESIGN_PERSON_AND_ORGANIZATION_ASSIGNMENT ( #153, #242, ( #236 ) ) ;
#239 = DIRECTION ( 'NONE',  ( -5.327607038415594908E-31, -1.000000000000000000, -1.499588067061556562E-16 ) ) ;
#240 = APPROVAL_DATE_TIME ( #196, #105 ) ;
#241 = CARTESIAN_POINT ( 'NONE',  ( 7.070102996307248129E-16, -2.479858307631295618E-17, 0.2024957979196834179 ) ) ;
#242 = PERSON_AND_ORGANIZATION_ROLE ( 'classification_officer' ) ;
#243 = AXIS2_PLACEMENT_3D ( 'NONE', #264, #292, #70 ) ;
#244 = DIRECTION ( 'NONE',  ( -4.473822571292633766E-31, -1.000000000000000000, -1.259269104062201232E-16 ) ) ;
#245 =( NAMED_UNIT ( * ) PLANE_ANGLE_UNIT ( ) SI_UNIT ( $, .RADIAN. ) );
#246 = CARTESIAN_POINT ( 'NONE',  ( 7.070102996307251087E-16, 0.6457330103160879853, 0.2024957979196835012 ) ) ;
#247 = EDGE_CURVE ( 'NONE', #179, #179, #56, .T. ) ;
#248 = LOCAL_TIME ( 13, 52, 46.00000000000000000, #71 ) ;
#249 = CARTESIAN_POINT ( 'NONE',  ( 2.374207310413330366E-14, -8.327598234202001119E-16, 6.799999999999999822 ) ) ;
#250 = CARTESIAN_POINT ( 'NONE',  ( 1.955229549752154679E-14, 5.421631614322605290E-33, 5.599999999999999645 ) ) ;
#251 = DIRECTION ( 'NONE',  ( 1.000000000000000000, 0.0000000000000000000, 0.0000000000000000000 ) ) ;
#252 = ORIENTED_EDGE ( 'NONE', *, *, #274, .F. ) ;
#253 = LOCAL_TIME ( 13, 52, 46.00000000000000000, #217 ) ;
#254 = APPROVAL ( #110, 'UNSPECIFIED' ) ;
#255 = EDGE_LOOP ( 'NONE', ( #278 ) ) ;
#256 = EDGE_LOOP ( 'NONE', ( #91 ) ) ;
#257 = ORIENTED_EDGE ( 'NONE', *, *, #126, .F. ) ;
#258 = CIRCLE ( 'NONE', #39, 0.6457330103160879853 ) ;
#259 = EDGE_LOOP ( 'NONE', ( #257 ) ) ;
#260 = CARTESIAN_POINT ( 'NONE',  ( 1.321525686752126196E-13, -4.635288134772732300E-15, 37.85000000000000853 ) ) ;
#261 = DATE_AND_TIME ( #171, #19 ) ;
#262 = DIRECTION ( 'NONE',  ( 4.275831445896958607E-31, 1.000000000000000000, 1.224646799147353207E-16 ) ) ;
#263 = APPROVAL_ROLE ( '' ) ;
#264 = CARTESIAN_POINT ( 'NONE',  ( 2.455355575792824984E-14, -8.612228034017244263E-16, 7.032417869391739629 ) ) ;
#265 = APPROVAL_DATE_TIME ( #68, #117 ) ;
#266 = APPROVAL_STATUS ( 'not_yet_approved' ) ;
#267 = DIRECTION ( 'NONE',  ( -3.491481338843133355E-15, 1.224646799147353207E-16, -1.000000000000000000 ) ) ;
#268 = PERSON_AND_ORGANIZATION_ROLE ( 'creator' ) ;
#269 = DIRECTION ( 'NONE',  ( 5.327607038415594908E-31, 1.000000000000000000, 1.499588067061556562E-16 ) ) ;
#270 = AXIS2_PLACEMENT_3D ( 'NONE', #192, #267, #286 ) ;
#271 = AXIS2_PLACEMENT_3D ( 'NONE', #227, #180, #33 ) ;
#272 = VERTEX_POINT ( 'NONE', #16 ) ;
#273 = VERTEX_POINT ( 'NONE', #14 ) ;
#274 = EDGE_CURVE ( 'NONE', #201, #201, #101, .T. ) ;
#275 = FACE_BOUND ( 'NONE', #256, .T. ) ;
#276 = EDGE_LOOP ( 'NONE', ( #252 ) ) ;
#277 = EDGE_CURVE ( 'NONE', #103, #103, #300, .T. ) ;
#278 = ORIENTED_EDGE ( 'NONE', *, *, #274, .T. ) ;
#279 = CC_DESIGN_APPROVAL ( #105, ( #236 ) ) ;
#280 = ORIENTED_EDGE ( 'NONE', *, *, #296, .T. ) ;
#281 = FACE_OUTER_BOUND ( 'NONE', #255, .T. ) ;
#282 = DIRECTION ( 'NONE',  ( -3.491481338843133355E-15, 1.224646799147353207E-16, -1.000000000000000000 ) ) ;
#283 = AXIS2_PLACEMENT_3D ( 'NONE', #175, #293, #79 ) ;
#284 = DIRECTION ( 'NONE',  ( 3.491481338843133355E-15, -1.224646799147353207E-16, 1.000000000000000000 ) ) ;
#285 = APPROVAL_STATUS ( 'not_yet_approved' ) ;
#286 = DIRECTION ( 'NONE',  ( 0.0000000000000000000, 1.000000000000000000, 0.0000000000000000000 ) ) ;
#287 = PERSON_AND_ORGANIZATION ( #298, #166 ) ;
#288 = PLANE ( 'NONE',  #283 ) ;
#289 = PERSON_AND_ORGANIZATION ( #298, #166 ) ;
#290 = AXIS2_PLACEMENT_3D ( 'NONE', #167, #96, #170 ) ;
#291 = AXIS2_PLACEMENT_3D ( 'NONE', #299, #301, #251 ) ;
#292 = DIRECTION ( 'NONE',  ( -3.491481338843133355E-15, 1.224646799147353207E-16, -1.000000000000000000 ) ) ;
#293 = DIRECTION ( 'NONE',  ( 3.491481338843133355E-15, -1.224646799147353207E-16, 1.000000000000000000 ) ) ;
#294 = CARTESIAN_POINT ( 'NONE',  ( 2.464573497024590740E-14, 0.7570741737109271119, 7.058819045102507239 ) ) ;
#295 = CARTESIAN_POINT ( 'NONE',  ( 2.094888803305880013E-15, 0.7229999999999991989, 0.6000000000000000888 ) ) ;
#296 = EDGE_CURVE ( 'NONE', #272, #272, #15, .T. ) ;
#297 = VERTEX_POINT ( 'NONE', #35 ) ;
#298 = PERSON ( 'UNSPECIFIED', 'UNSPECIFIED', 'UNSPECIFIED', ('UNSPECIFIED'), ('UNSPECIFIED'), ('UNSPECIFIED') ) ;
#299 = CARTESIAN_POINT ( 'NONE',  ( 0.0000000000000000000, 0.0000000000000000000, 0.0000000000000000000 ) ) ;
#300 = CIRCLE ( 'NONE', #82, 0.7230000000000000870 ) ;
#301 = DIRECTION ( 'NONE',  ( 0.0000000000000000000, 0.0000000000000000000, 1.000000000000000000 ) ) ;
#302 = EDGE_LOOP ( 'NONE', ( #22 ) ) ;
#303 = EDGE_LOOP ( 'NONE', ( #141 ) ) ;
ENDSEC;
END-ISO-10303-21;
