ISO-10303-21;
HEADER;
FILE_DESCRIPTION (( 'STEP AP203' ),
    '1' );
FILE_NAME ('992521.step',
    '2021-12-17T12:47:21',
    ( '' ),
    ( '' ),
    'SwSTEP 2.0',
    'SolidWorks 2019',
    '' );
FILE_SCHEMA (( 'CONFIG_CONTROL_DESIGN' ));
ENDSEC;

DATA;
#1 = EDGE_CURVE ( 'NONE', #8, #8, #68, .T. ) ;
#2 = CARTESIAN_POINT ( 'NONE',  ( 1.955229549752154679E-14, -6.858022075225177566E-16, 5.599999999999999645 ) ) ;
#3 = APPROVAL_DATE_TIME ( #95, #128 ) ;
#4 = CYLINDRICAL_SURFACE ( 'NONE', #18, 0.7229999999999995319 ) ;
#5 = DIRECTION ( 'NONE',  ( 0.0000000000000000000, 1.000000000000000000, 0.0000000000000000000 ) ) ;
#6 = AXIS2_PLACEMENT_3D ( 'NONE', #299, #87, #173 ) ;
#7 = FACE_OUTER_BOUND ( 'NONE', #94, .T. ) ;
#8 = VERTEX_POINT ( 'NONE', #98 ) ;
#9 = EDGE_LOOP ( 'NONE', ( #258 ) ) ;
#10 = CARTESIAN_POINT ( 'NONE',  ( 0.0000000000000000000, 0.0000000000000000000, 0.0000000000000000000 ) ) ;
#11 = CARTESIAN_POINT ( 'NONE',  ( 1.955229549752154679E-14, 5.421631614322605290E-33, 5.599999999999999645 ) ) ;
#12 = APPROVAL_STATUS ( 'not_yet_approved' ) ;
#13 = APPLICATION_CONTEXT ( 'configuration controlled 3d designs of mechanical parts and assemblies' ) ;
#14 = CARTESIAN_POINT ( 'NONE',  ( 2.324914243470865405E-14, -8.154701429686219234E-16, 6.658819045102506884 ) ) ;
#15 = DIRECTION ( 'NONE',  ( 3.491481338843133355E-15, -1.224646799147353207E-16, 1.000000000000000000 ) ) ;
#16 = SECURITY_CLASSIFICATION_LEVEL ( 'unclassified' ) ;
#17 = CARTESIAN_POINT ( 'NONE',  ( 1.396592535537253342E-15, -4.898587196589412459E-17, 0.3999999999999999667 ) ) ;
#18 = AXIS2_PLACEMENT_3D ( 'NONE', #146, #237, #29 ) ;
#19 = SECURITY_CLASSIFICATION ( '', '', #16 ) ;
#20 = AXIS2_PLACEMENT_3D ( 'NONE', #251, #275, #44 ) ;
#21 = ADVANCED_FACE ( 'NONE', ( #168, #48 ), #4, .T. ) ;
#22 = EDGE_LOOP ( 'NONE', ( #73 ) ) ;
#23 = APPROVAL_STATUS ( 'not_yet_approved' ) ;
#24 = PRODUCT_DEFINITION_FORMATION_WITH_SPECIFIED_SOURCE ( 'ANY', '', #55, .NOT_KNOWN. ) ;
#25 = EDGE_LOOP ( 'NONE', ( #179 ) ) ;
#26 = CARTESIAN_POINT ( 'NONE',  ( 2.324914243470865405E-14, 0.7570741737109274450, 6.658819045102506884 ) ) ;
#27 = ORIENTED_EDGE ( 'NONE', *, *, #32, .T. ) ;
#28 = EDGE_CURVE ( 'NONE', #284, #284, #155, .T. ) ;
#29 = DIRECTION ( 'NONE',  ( 4.275831445896959482E-31, 1.000000000000000000, 1.224646799147353454E-16 ) ) ;
#30 = CARTESIAN_POINT ( 'NONE',  ( 1.955229549752154679E-14, 0.7229999999999991989, 5.599999999999999645 ) ) ;
#31 = FACE_BOUND ( 'NONE', #283, .T. ) ;
#32 = EDGE_CURVE ( 'NONE', #52, #52, #266, .T. ) ;
#33 = FACE_OUTER_BOUND ( 'NONE', #22, .T. ) ;
#34 = PERSON_AND_ORGANIZATION ( #177, #272 ) ;
#35 = CARTESIAN_POINT ( 'NONE',  ( -5.344789307371197163E-32, 1.874699728327322010E-33, -1.530808498934191509E-17 ) ) ;
#36 = PERSON_AND_ORGANIZATION ( #177, #272 ) ;
#37 = DIRECTION ( 'NONE',  ( -3.491481338843133355E-15, 1.224646799147353207E-16, -1.000000000000000000 ) ) ;
#38 = COORDINATED_UNIVERSAL_TIME_OFFSET ( 1, 0, .AHEAD. ) ;
#39 = AXIS2_PLACEMENT_3D ( 'NONE', #291, #137, #240 ) ;
#40 = DIRECTION ( 'NONE',  ( 0.0000000000000000000, 1.000000000000000000, 0.0000000000000000000 ) ) ;
#41 = APPROVAL_ROLE ( '' ) ;
#42 = ADVANCED_FACE ( 'NONE', ( #7, #31 ), #252, .F. ) ;
#43 = CYLINDRICAL_SURFACE ( 'NONE', #105, 0.7499999999999978906 ) ;
#44 = DIRECTION ( 'NONE',  ( -4.275831445896958607E-31, -1.000000000000000000, -1.224646799147353207E-16 ) ) ;
#45 = CC_DESIGN_DATE_AND_TIME_ASSIGNMENT ( #153, #243, ( #19 ) ) ;
#46 = ORIENTED_EDGE ( 'NONE', *, *, #220, .F. ) ;
#47 = PERSON_AND_ORGANIZATION ( #177, #272 ) ;
#48 = FACE_OUTER_BOUND ( 'NONE', #9, .T. ) ;
#49 = COORDINATED_UNIVERSAL_TIME_OFFSET ( 1, 0, .AHEAD. ) ;
#50 = EDGE_LOOP ( 'NONE', ( #145 ) ) ;
#51 = EDGE_CURVE ( 'NONE', #282, #282, #159, .T. ) ;
#52 = VERTEX_POINT ( 'NONE', #30 ) ;
#53 = EDGE_LOOP ( 'NONE', ( #79 ) ) ;
#54 = CC_DESIGN_PERSON_AND_ORGANIZATION_ASSIGNMENT ( #164, #259, ( #290 ) ) ;
#55 = PRODUCT ( '992521', '992521', '', ( #72 ) ) ;
#56 = FACE_BOUND ( 'NONE', #256, .T. ) ;
#57 = APPROVAL_ROLE ( '' ) ;
#58 = DIRECTION ( 'NONE',  ( 4.275831445896958607E-31, 1.000000000000000000, 1.224646799147353207E-16 ) ) ;
#59 = SHAPE_DEFINITION_REPRESENTATION ( #236, #178 ) ;
#60 = CARTESIAN_POINT ( 'NONE',  ( 0.0000000000000000000, 0.0000000000000000000, 0.0000000000000000000 ) ) ;
#61 = CIRCLE ( 'NONE', #156, 0.7499999999999971134 ) ;
#62 = EDGE_CURVE ( 'NONE', #208, #208, #116, .T. ) ;
#63 = DIRECTION ( 'NONE',  ( 0.0000000000000000000, 1.000000000000000000, 0.0000000000000000000 ) ) ;
#64 = FACE_OUTER_BOUND ( 'NONE', #260, .T. ) ;
#65 = AXIS2_PLACEMENT_3D ( 'NONE', #194, #273, #265 ) ;
#66 = APPROVAL_PERSON_ORGANIZATION ( #36, #160, #57 ) ;
#67 = EDGE_CURVE ( 'NONE', #124, #124, #218, .T. ) ;
#68 = CIRCLE ( 'NONE', #75, 0.5999999999999986455 ) ;
#69 = ORIENTED_EDGE ( 'NONE', *, *, #51, .T. ) ;
#70 = DIRECTION ( 'NONE',  ( 1.000000000000000000, 0.0000000000000000000, 0.0000000000000000000 ) ) ;
#71 = DIRECTION ( 'NONE',  ( -3.491481338843133355E-15, 1.224646799147353207E-16, -1.000000000000000000 ) ) ;
#72 = MECHANICAL_CONTEXT ( 'NONE', #13, 'mechanical' ) ;
#73 = ORIENTED_EDGE ( 'NONE', *, *, #254, .F. ) ;
#74 = CARTESIAN_POINT ( 'NONE',  ( 8.974618332624798765E-16, -3.147872363613945066E-17, 0.2570432851174409006 ) ) ;
#75 = AXIS2_PLACEMENT_3D ( 'NONE', #76, #71, #5 ) ;
#76 = CARTESIAN_POINT ( 'NONE',  ( 1.047444401652940007E-13, -3.673940397442059178E-15, 30.00000000000000000 ) ) ;
#77 = CARTESIAN_POINT ( 'NONE',  ( 1.955229549752154679E-14, 0.7229999999999991989, 5.599999999999999645 ) ) ;
#78 = MANIFOLD_SOLID_BREP ( 'Corps-Déplacer/Copier1[1]', #196 ) ;
#79 = ORIENTED_EDGE ( 'NONE', *, *, #1, .F. ) ;
#80 =( LENGTH_UNIT ( ) NAMED_UNIT ( * ) SI_UNIT ( .MILLI., .METRE. ) );
#81 = ADVANCED_FACE ( 'NONE', ( #268, #157 ), #226, .F. ) ;
#82 = DESIGN_CONTEXT ( 'detailed design', #100, 'design' ) ;
#83 = FACE_OUTER_BOUND ( 'NONE', #207, .T. ) ;
#84 = COORDINATED_UNIVERSAL_TIME_OFFSET ( 1, 0, .AHEAD. ) ;
#85 = FACE_OUTER_BOUND ( 'NONE', #185, .T. ) ;
#86 = DIRECTION ( 'NONE',  ( 3.491481338843133355E-15, -1.224646799147353207E-16, 1.000000000000000000 ) ) ;
#87 = DIRECTION ( 'NONE',  ( -3.491481338843133355E-15, 1.224646799147353207E-16, -1.000000000000000000 ) ) ;
#88 = PERSON_AND_ORGANIZATION ( #177, #272 ) ;
#89 = DIRECTION ( 'NONE',  ( 0.0000000000000000000, -1.000000000000000000, 0.0000000000000000000 ) ) ;
#90 = DIRECTION ( 'NONE',  ( 3.491481338843133355E-15, -1.224646799147353207E-16, 1.000000000000000000 ) ) ;
#91 = AXIS2_PLACEMENT_3D ( 'NONE', #242, #158, #58 ) ;
#92 = CC_DESIGN_PERSON_AND_ORGANIZATION_ASSIGNMENT ( #47, #279, ( #55 ) ) ;
#93 = LOCAL_TIME ( 13, 47, 21.00000000000000000, #84 ) ;
#94 = EDGE_LOOP ( 'NONE', ( #235 ) ) ;
#95 = DATE_AND_TIME ( #205, #301 ) ;
#96 = DIRECTION ( 'NONE',  ( -3.491481338843133355E-15, 1.224646799147353207E-16, -1.000000000000000000 ) ) ;
#97 = ORIENTED_EDGE ( 'NONE', *, *, #67, .F. ) ;
#98 = CARTESIAN_POINT ( 'NONE',  ( 1.047444401652940007E-13, 0.5999999999999949818, 30.00000000000000000 ) ) ;
#99 = VERTEX_POINT ( 'NONE', #232 ) ;
#100 = APPLICATION_CONTEXT ( 'configuration controlled 3d designs of mechanical parts and assemblies' ) ;
#101 = DIRECTION ( 'NONE',  ( 4.275831445896958607E-31, 1.000000000000000000, 1.224646799147353207E-16 ) ) ;
#102 = CALENDAR_DATE ( 2021, 17, 12 ) ;
#103 = CARTESIAN_POINT ( 'NONE',  ( 1.047444401652940007E-13, 4.499279347985507822E-33, 30.00000000000000000 ) ) ;
#104 = PERSON_AND_ORGANIZATION ( #177, #272 ) ;
#105 = AXIS2_PLACEMENT_3D ( 'NONE', #10, #37, #215 ) ;
#106 = CARTESIAN_POINT ( 'NONE',  ( 1.955229549752154679E-14, -6.858022075225177566E-16, 5.599999999999999645 ) ) ;
#107 = AXIS2_PLACEMENT_3D ( 'NONE', #180, #238, #70 ) ;
#108 = DATE_AND_TIME ( #111, #93 ) ;
#109 = ADVANCED_FACE ( 'NONE', ( #33, #112 ), #43, .T. ) ;
#110 = DIRECTION ( 'NONE',  ( -4.275831445896958607E-31, -1.000000000000000000, -1.224646799147353207E-16 ) ) ;
#111 = CALENDAR_DATE ( 2021, 17, 12 ) ;
#112 = FACE_OUTER_BOUND ( 'NONE', #25, .T. ) ;
#113 = CALENDAR_DATE ( 2021, 17, 12 ) ;
#114 = FACE_BOUND ( 'NONE', #183, .T. ) ;
#115 = ADVANCED_FACE ( 'NONE', ( #222 ), #138, .F. ) ;
#116 = CIRCLE ( 'NONE', #65, 0.7499999999999984457 ) ;
#117 = CIRCLE ( 'NONE', #287, 0.7570741737109283331 ) ;
#118 = LOCAL_TIME ( 13, 47, 21.00000000000000000, #217 ) ;
#119 = ORIENTED_EDGE ( 'NONE', *, *, #62, .F. ) ;
#120 = CC_DESIGN_PERSON_AND_ORGANIZATION_ASSIGNMENT ( #88, #150, ( #24 ) ) ;
#121 = APPROVAL_ROLE ( '' ) ;
#122 = AXIS2_PLACEMENT_3D ( 'NONE', #129, #269, #89 ) ;
#123 = ORIENTED_EDGE ( 'NONE', *, *, #28, .F. ) ;
#124 = VERTEX_POINT ( 'NONE', #77 ) ;
#125 = EDGE_LOOP ( 'NONE', ( #123 ) ) ;
#126 = CARTESIAN_POINT ( 'NONE',  ( -1.068957861474239433E-31, 3.749399456654644020E-33, -3.061616997868383018E-17 ) ) ;
#127 = AXIS2_PLACEMENT_3D ( 'NONE', #106, #192, #63 ) ;
#128 = APPROVAL ( #23, 'UNSPECIFIED' ) ;
#129 = CARTESIAN_POINT ( 'NONE',  ( 2.315696322239100281E-14, -8.122369314358305051E-16, 6.632417869391742826 ) ) ;
#130 = CARTESIAN_POINT ( 'NONE',  ( 8.974618332624798765E-16, -3.147872363613945066E-17, 0.2570432851174409006 ) ) ;
#131 = APPROVAL_DATE_TIME ( #296, #160 ) ;
#132 = CYLINDRICAL_SURFACE ( 'NONE', #134, 0.7229999999999998650 ) ;
#133 = ADVANCED_FACE ( 'NONE', ( #149, #198 ), #132, .T. ) ;
#134 = AXIS2_PLACEMENT_3D ( 'NONE', #60, #200, #101 ) ;
#135 = DIRECTION ( 'NONE',  ( -3.491481338843133355E-15, 1.224646799147353207E-16, -1.000000000000000000 ) ) ;
#136 = LOCAL_TIME ( 13, 47, 21.00000000000000000, #49 ) ;
#137 = DIRECTION ( 'NONE',  ( -3.491481338843133355E-15, 1.224646799147353207E-16, -1.000000000000000000 ) ) ;
#138 = PLANE ( 'NONE',  #261 ) ;
#139 = FACE_OUTER_BOUND ( 'NONE', #229, .T. ) ;
#140 = AXIS2_PLACEMENT_3D ( 'NONE', #171, #244, #219 ) ;
#141 = CC_DESIGN_SECURITY_CLASSIFICATION ( #19, ( #24 ) ) ;
#142 = EDGE_LOOP ( 'NONE', ( #209 ) ) ;
#143 = VERTEX_POINT ( 'NONE', #169 ) ;
#144 = DIRECTION ( 'NONE',  ( 0.0000000000000000000, 1.000000000000000000, 0.0000000000000000000 ) ) ;
#145 = ORIENTED_EDGE ( 'NONE', *, *, #220, .T. ) ;
#146 = CARTESIAN_POINT ( 'NONE',  ( 0.0000000000000000000, 0.0000000000000000000, 0.0000000000000000000 ) ) ;
#147 = ADVANCED_FACE ( 'NONE', ( #83 ), #295, .F. ) ;
#148 = LOCAL_TIME ( 13, 47, 21.00000000000000000, #38 ) ;
#149 = FACE_OUTER_BOUND ( 'NONE', #142, .T. ) ;
#150 = PERSON_AND_ORGANIZATION_ROLE ( 'design_supplier' ) ;
#151 = ADVANCED_FACE ( 'NONE', ( #293, #56 ), #231, .T. ) ;
#152 = PLANE ( 'NONE',  #246 ) ;
#153 = DATE_AND_TIME ( #199, #148 ) ;
#154 = DIRECTION ( 'NONE',  ( -4.275831445896958607E-31, -1.000000000000000000, -1.224646799147353207E-16 ) ) ;
#155 = CIRCLE ( 'NONE', #239, 0.2500000000000000000 ) ;
#156 = AXIS2_PLACEMENT_3D ( 'NONE', #271, #248, #40 ) ;
#157 = FACE_OUTER_BOUND ( 'NONE', #165, .T. ) ;
#158 = DIRECTION ( 'NONE',  ( -3.491481338843133355E-15, 1.224646799147353207E-16, -1.000000000000000000 ) ) ;
#159 = CIRCLE ( 'NONE', #6, 0.7229999999999991989 ) ;
#160 = APPROVAL ( #12, 'UNSPECIFIED' ) ;
#161 = ORIENTED_EDGE ( 'NONE', *, *, #280, .F. ) ;
#162 = APPLICATION_PROTOCOL_DEFINITION ( 'international standard', 'config_control_design', 1994, #100 ) ;
#163 = ORIENTED_EDGE ( 'NONE', *, *, #51, .F. ) ;
#164 = PERSON_AND_ORGANIZATION ( #177, #272 ) ;
#165 = EDGE_LOOP ( 'NONE', ( #286 ) ) ;
#166 = VERTEX_POINT ( 'NONE', #26 ) ;
#167 = CONICAL_SURFACE ( 'NONE', #255, 0.6952120295678158035, 1.047197551196592968 ) ;
#168 = FACE_OUTER_BOUND ( 'NONE', #289, .T. ) ;
#169 = CARTESIAN_POINT ( 'NONE',  ( 2.315696322239100281E-14, 0.7499999999999963363, 6.632417869391742826 ) ) ;
#170 = DIRECTION ( 'NONE',  ( -5.540554140251300934E-31, -1.000000000000000000, -1.559527347591363607E-16 ) ) ;
#171 = CARTESIAN_POINT ( 'NONE',  ( 2.234548056859605347E-14, -7.837739514543060920E-16, 6.400000000000000355 ) ) ;
#172 = DIRECTION ( 'NONE',  ( 0.0000000000000000000, 1.000000000000000000, 0.0000000000000000000 ) ) ;
#173 = DIRECTION ( 'NONE',  ( 5.327607038415595784E-31, 1.000000000000000000, 1.499588067061556809E-16 ) ) ;
#174 = ADVANCED_FACE ( 'NONE', ( #221, #85 ), #167, .T. ) ;
#175 = DIRECTION ( 'NONE',  ( -5.327607038415595784E-31, -1.000000000000000000, -1.499588067061556809E-16 ) ) ;
#176 = CLOSED_SHELL ( 'NONE', ( #201, #174, #277, #21, #274 ) ) ;
#177 = PERSON ( 'UNSPECIFIED', 'UNSPECIFIED', 'UNSPECIFIED', ('UNSPECIFIED'), ('UNSPECIFIED'), ('UNSPECIFIED') ) ;
#178 = ADVANCED_BREP_SHAPE_REPRESENTATION ( '992521', ( #78, #285, #107 ), #224 ) ;
#179 = ORIENTED_EDGE ( 'NONE', *, *, #62, .T. ) ;
#180 = CARTESIAN_POINT ( 'NONE',  ( 0.0000000000000000000, 0.0000000000000000000, 0.0000000000000000000 ) ) ;
#181 = ORIENTED_EDGE ( 'NONE', *, *, #28, .T. ) ;
#182 = COORDINATED_UNIVERSAL_TIME_OFFSET ( 1, 0, .AHEAD. ) ;
#183 = EDGE_LOOP ( 'NONE', ( #161 ) ) ;
#184 = DIRECTION ( 'NONE',  ( 5.540554140251300934E-31, 1.000000000000000000, 1.559527347591363607E-16 ) ) ;
#185 = EDGE_LOOP ( 'NONE', ( #204 ) ) ;
#186 = CARTESIAN_POINT ( 'NONE',  ( 2.138211768073756517E-47, 0.2500000000000000000, 0.0000000000000000000 ) ) ;
#187 = CIRCLE ( 'NONE', #206, 0.6952120295678158035 ) ;
#188 = CONICAL_SURFACE ( 'NONE', #247, 0.7229999999999991989, 0.1919862177193690789 ) ;
#189 = ORIENTED_EDGE ( 'NONE', *, *, #254, .T. ) ;
#190 = APPLICATION_PROTOCOL_DEFINITION ( 'international standard', 'config_control_design', 1994, #13 ) ;
#191 = UNCERTAINTY_MEASURE_WITH_UNIT (LENGTH_MEASURE( 1.000000000000000082E-05 ), #80, 'distance_accuracy_value', 'NONE');
#192 = DIRECTION ( 'NONE',  ( -3.491481338843133355E-15, 1.224646799147353207E-16, -1.000000000000000000 ) ) ;
#193 = PRODUCT_RELATED_PRODUCT_CATEGORY ( 'detail', '', ( #55 ) ) ;
#194 = CARTESIAN_POINT ( 'NONE',  ( 1.042207179644675275E-13, -3.655570695454848748E-15, 29.84999999999999787 ) ) ;
#195 = APPROVAL_DATE_TIME ( #108, #303 ) ;
#196 = CLOSED_SHELL ( 'NONE', ( #147, #133, #81, #42, #109, #151, #115 ) ) ;
#197 = CC_DESIGN_APPROVAL ( #303, ( #24 ) ) ;
#198 = FACE_OUTER_BOUND ( 'NONE', #50, .T. ) ;
#199 = CALENDAR_DATE ( 2021, 17, 12 ) ;
#200 = DIRECTION ( 'NONE',  ( -3.491481338843133355E-15, 1.224646799147353207E-16, -1.000000000000000000 ) ) ;
#201 = ADVANCED_FACE ( 'NONE', ( #202 ), #152, .F. ) ;
#202 = FACE_OUTER_BOUND ( 'NONE', #214, .T. ) ;
#203 = APPROVAL_PERSON_ORGANIZATION ( #228, #128, #121 ) ;
#204 = ORIENTED_EDGE ( 'NONE', *, *, #280, .T. ) ;
#205 = CALENDAR_DATE ( 2021, 17, 12 ) ;
#206 = AXIS2_PLACEMENT_3D ( 'NONE', #74, #96, #184 ) ;
#207 = EDGE_LOOP ( 'NONE', ( #27 ) ) ;
#208 = VERTEX_POINT ( 'NONE', #288 ) ;
#209 = ORIENTED_EDGE ( 'NONE', *, *, #32, .F. ) ;
#210 = VERTEX_POINT ( 'NONE', #262 ) ;
#211 = DIRECTION ( 'NONE',  ( -3.491481338843133355E-15, 1.224646799147353207E-16, -1.000000000000000000 ) ) ;
#212 = AXIS2_PLACEMENT_3D ( 'NONE', #11, #86, #110 ) ;
#213 = CC_DESIGN_DATE_AND_TIME_ASSIGNMENT ( #241, #270, ( #290 ) ) ;
#214 = EDGE_LOOP ( 'NONE', ( #181 ) ) ;
#215 = DIRECTION ( 'NONE',  ( 4.275831445896958607E-31, 1.000000000000000000, 1.224646799147353207E-16 ) ) ;
#216 = DIRECTION ( 'NONE',  ( 3.491481338843133355E-15, -1.224646799147353207E-16, 1.000000000000000000 ) ) ;
#217 = COORDINATED_UNIVERSAL_TIME_OFFSET ( 1, 0, .AHEAD. ) ;
#218 = CIRCLE ( 'NONE', #127, 0.7229999999999998650 ) ;
#219 = DIRECTION ( 'NONE',  ( 0.0000000000000000000, 1.000000000000000000, 0.0000000000000000000 ) ) ;
#220 = EDGE_CURVE ( 'NONE', #99, #99, #300, .T. ) ;
#221 = FACE_BOUND ( 'NONE', #125, .T. ) ;
#222 = FACE_OUTER_BOUND ( 'NONE', #53, .T. ) ;
#223 = AXIS2_PLACEMENT_3D ( 'NONE', #2, #281, #144 ) ;
#224 =( GEOMETRIC_REPRESENTATION_CONTEXT ( 3 ) GLOBAL_UNCERTAINTY_ASSIGNED_CONTEXT ( ( #191 ) ) GLOBAL_UNIT_ASSIGNED_CONTEXT ( ( #80, #234, #257 ) ) REPRESENTATION_CONTEXT ( 'NONE', 'WORKASPACE' ) );
#225 = EDGE_CURVE ( 'NONE', #166, #166, #117, .T. ) ;
#226 = TOROIDAL_SURFACE ( 'NONE', #91, 1.723000000000000087, 1.000000000000000000 ) ;
#227 = DIRECTION ( 'NONE',  ( 4.275831445896958607E-31, 1.000000000000000000, 1.224646799147353207E-16 ) ) ;
#228 = PERSON_AND_ORGANIZATION ( #177, #272 ) ;
#229 = EDGE_LOOP ( 'NONE', ( #69 ) ) ;
#230 = CC_DESIGN_PERSON_AND_ORGANIZATION_ASSIGNMENT ( #298, #245, ( #24 ) ) ;
#231 = CONICAL_SURFACE ( 'NONE', #39, 0.5999999999999986455, 0.7853981633974450594 ) ;
#232 = CARTESIAN_POINT ( 'NONE',  ( 2.234548056859605347E-14, 0.7229999999999991989, 6.400000000000000355 ) ) ;
#233 = ORIENTED_EDGE ( 'NONE', *, *, #1, .T. ) ;
#234 =( NAMED_UNIT ( * ) PLANE_ANGLE_UNIT ( ) SI_UNIT ( $, .RADIAN. ) );
#235 = ORIENTED_EDGE ( 'NONE', *, *, #225, .F. ) ;
#236 = PRODUCT_DEFINITION_SHAPE ( 'NONE', 'NONE',  #290 ) ;
#237 = DIRECTION ( 'NONE',  ( -3.491481338843133355E-15, 1.224646799147353207E-16, -1.000000000000000000 ) ) ;
#238 = DIRECTION ( 'NONE',  ( 0.0000000000000000000, 0.0000000000000000000, 1.000000000000000000 ) ) ;
#239 = AXIS2_PLACEMENT_3D ( 'NONE', #126, #211, #227 ) ;
#240 = DIRECTION ( 'NONE',  ( 0.0000000000000000000, 1.000000000000000000, 0.0000000000000000000 ) ) ;
#241 = DATE_AND_TIME ( #102, #136 ) ;
#242 = CARTESIAN_POINT ( 'NONE',  ( 2.234548056859605347E-14, -8.673617379884035472E-16, 6.400000000000000355 ) ) ;
#243 = DATE_TIME_ROLE ( 'classification_date' ) ;
#244 = DIRECTION ( 'NONE',  ( -3.491481338843133355E-15, 1.224646799147353207E-16, -1.000000000000000000 ) ) ;
#245 = PERSON_AND_ORGANIZATION_ROLE ( 'creator' ) ;
#246 = AXIS2_PLACEMENT_3D ( 'NONE', #35, #216, #154 ) ;
#247 = AXIS2_PLACEMENT_3D ( 'NONE', #17, #90, #175 ) ;
#248 = DIRECTION ( 'NONE',  ( -3.491481338843133355E-15, 1.224646799147353207E-16, -1.000000000000000000 ) ) ;
#249 = DIRECTION ( 'NONE',  ( 4.275831445896958607E-31, 1.000000000000000000, 1.224646799147353207E-16 ) ) ;
#250 = CC_DESIGN_PERSON_AND_ORGANIZATION_ASSIGNMENT ( #34, #294, ( #19 ) ) ;
#251 = CARTESIAN_POINT ( 'NONE',  ( 1.955229549752154679E-14, 5.421631614322605290E-33, 5.599999999999999645 ) ) ;
#252 = CONICAL_SURFACE ( 'NONE', #122, 0.7499999999999971134, 0.2617993877991409701 ) ;
#253 = CC_DESIGN_APPROVAL ( #160, ( #19 ) ) ;
#254 = EDGE_CURVE ( 'NONE', #143, #143, #61, .T. ) ;
#255 = AXIS2_PLACEMENT_3D ( 'NONE', #130, #15, #170 ) ;
#256 = EDGE_LOOP ( 'NONE', ( #233 ) ) ;
#257 =( NAMED_UNIT ( * ) SI_UNIT ( $, .STERADIAN. ) SOLID_ANGLE_UNIT ( ) );
#258 = ORIENTED_EDGE ( 'NONE', *, *, #67, .T. ) ;
#259 = PERSON_AND_ORGANIZATION_ROLE ( 'creator' ) ;
#260 = EDGE_LOOP ( 'NONE', ( #97 ) ) ;
#261 = AXIS2_PLACEMENT_3D ( 'NONE', #103, #135, #249 ) ;
#262 = CARTESIAN_POINT ( 'NONE',  ( 8.974618332624802709E-16, 0.6952120295678158035, 0.2570432851174410116 ) ) ;
#263 = EDGE_LOOP ( 'NONE', ( #119 ) ) ;
#264 = CARTESIAN_POINT ( 'NONE',  ( 1.396592535537253737E-15, 0.7229999999999991989, 0.4000000000000000777 ) ) ;
#265 = DIRECTION ( 'NONE',  ( 0.0000000000000000000, 1.000000000000000000, 0.0000000000000000000 ) ) ;
#266 = CIRCLE ( 'NONE', #223, 0.7229999999999998650 ) ;
#267 = APPROVAL_PERSON_ORGANIZATION ( #104, #303, #41 ) ;
#268 = FACE_OUTER_BOUND ( 'NONE', #278, .T. ) ;
#269 = DIRECTION ( 'NONE',  ( 3.491481338843133355E-15, -1.224646799147353207E-16, 1.000000000000000000 ) ) ;
#270 = DATE_TIME_ROLE ( 'creation_date' ) ;
#271 = CARTESIAN_POINT ( 'NONE',  ( 2.315696322239100281E-14, -8.122369314358305051E-16, 6.632417869391742826 ) ) ;
#272 = ORGANIZATION ( 'UNSPECIFIED', 'UNSPECIFIED', '' ) ;
#273 = DIRECTION ( 'NONE',  ( -3.491481338843133355E-15, 1.224646799147353207E-16, -1.000000000000000000 ) ) ;
#274 = ADVANCED_FACE ( 'NONE', ( #64 ), #302, .T. ) ;
#275 = DIRECTION ( 'NONE',  ( 3.491481338843133355E-15, -1.224646799147353207E-16, 1.000000000000000000 ) ) ;
#276 = CC_DESIGN_APPROVAL ( #128, ( #290 ) ) ;
#277 = ADVANCED_FACE ( 'NONE', ( #114, #139 ), #188, .T. ) ;
#278 = EDGE_LOOP ( 'NONE', ( #46 ) ) ;
#279 = PERSON_AND_ORGANIZATION_ROLE ( 'design_owner' ) ;
#280 = EDGE_CURVE ( 'NONE', #210, #210, #187, .T. ) ;
#281 = DIRECTION ( 'NONE',  ( -3.491481338843133355E-15, 1.224646799147353207E-16, -1.000000000000000000 ) ) ;
#282 = VERTEX_POINT ( 'NONE', #264 ) ;
#283 = EDGE_LOOP ( 'NONE', ( #189 ) ) ;
#284 = VERTEX_POINT ( 'NONE', #186 ) ;
#285 = MANIFOLD_SOLID_BREP ( 'Corps-Déplacer/Copier1[2]', #176 ) ;
#286 = ORIENTED_EDGE ( 'NONE', *, *, #225, .T. ) ;
#287 = AXIS2_PLACEMENT_3D ( 'NONE', #14, #297, #172 ) ;
#288 = CARTESIAN_POINT ( 'NONE',  ( 1.042207179644675275E-13, 0.7499999999999947820, 29.84999999999999787 ) ) ;
#289 = EDGE_LOOP ( 'NONE', ( #163 ) ) ;
#290 = PRODUCT_DEFINITION ( 'UNKNOWN', '', #24, #82 ) ;
#291 = CARTESIAN_POINT ( 'NONE',  ( 1.047444401652940007E-13, -3.673940397442059178E-15, 30.00000000000000000 ) ) ;
#292 = APPROVAL_STATUS ( 'not_yet_approved' ) ;
#293 = FACE_OUTER_BOUND ( 'NONE', #263, .T. ) ;
#294 = PERSON_AND_ORGANIZATION_ROLE ( 'classification_officer' ) ;
#295 = PLANE ( 'NONE',  #212 ) ;
#296 = DATE_AND_TIME ( #113, #118 ) ;
#297 = DIRECTION ( 'NONE',  ( -3.491481338843133355E-15, 1.224646799147353207E-16, -1.000000000000000000 ) ) ;
#298 = PERSON_AND_ORGANIZATION ( #177, #272 ) ;
#299 = CARTESIAN_POINT ( 'NONE',  ( 1.396592535537253342E-15, -4.898587196589412459E-17, 0.3999999999999999667 ) ) ;
#300 = CIRCLE ( 'NONE', #140, 0.7229999999999999760 ) ;
#301 = LOCAL_TIME ( 13, 47, 21.00000000000000000, #182 ) ;
#302 = PLANE ( 'NONE',  #20 ) ;
#303 = APPROVAL ( #292, 'UNSPECIFIED' ) ;
ENDSEC;
END-ISO-10303-21;
