ISO-10303-21;
HEADER;
FILE_DESCRIPTION (( 'STEP AP203' ),
    '1' );
FILE_NAME ('992520.step',
    '2021-12-17T12:52:46',
    ( '' ),
    ( '' ),
    'SwSTEP 2.0',
    'SolidWorks 2019',
    '' );
FILE_SCHEMA (( 'CONFIG_CONTROL_DESIGN' ));
ENDSEC;

DATA;
#1 = LOCAL_TIME ( 13, 52, 46.00000000000000000, #79 ) ;
#2 = EDGE_LOOP ( 'NONE', ( #69 ) ) ;
#3 = ADVANCED_BREP_SHAPE_REPRESENTATION ( '992520', ( #48, #44, #59 ), #209 ) ;
#4 = AXIS2_PLACEMENT_3D ( 'NONE', #49, #148, #238 ) ;
#5 = DIRECTION ( 'NONE',  ( 3.491481338843133355E-15, -1.224646799147353207E-16, 1.000000000000000000 ) ) ;
#6 = FACE_OUTER_BOUND ( 'NONE', #303, .T. ) ;
#7 = FACE_BOUND ( 'NONE', #2, .T. ) ;
#8 = CARTESIAN_POINT ( 'NONE',  ( 6.149090605968795133E-16, -2.156810647815716487E-17, 0.1761169546449941337 ) ) ;
#9 = CIRCLE ( 'NONE', #182, 0.7499999999999991118 ) ;
#10 = DIRECTION ( 'NONE',  ( 0.0000000000000000000, 1.000000000000000000, 0.0000000000000000000 ) ) ;
#11 = CARTESIAN_POINT ( 'NONE',  ( 1.047444401652940007E-13, -3.673940397442059178E-15, 30.00000000000000000 ) ) ;
#12 = CARTESIAN_POINT ( 'NONE',  ( 1.745740669421566678E-15, 0.6179999999999993276, 0.5000000000000000000 ) ) ;
#13 = ADVANCED_FACE ( 'NONE', ( #121 ), #278, .F. ) ;
#14 = VERTEX_POINT ( 'NONE', #183 ) ;
#15 = CARTESIAN_POINT ( 'NONE',  ( 2.365919782978951860E-31, 0.2500000000000000555, 6.776263578034402713E-17 ) ) ;
#16 = PERSON_AND_ORGANIZATION_ROLE ( 'design_owner' ) ;
#17 = AXIS2_PLACEMENT_3D ( 'NONE', #217, #292, #192 ) ;
#18 = DIRECTION ( 'NONE',  ( -4.275831445896958607E-31, -1.000000000000000000, -1.224646799147353207E-16 ) ) ;
#19 = EDGE_LOOP ( 'NONE', ( #254 ) ) ;
#20 = EDGE_LOOP ( 'NONE', ( #117 ) ) ;
#21 = CIRCLE ( 'NONE', #100, 0.6179999999999998828 ) ;
#22 = DIRECTION ( 'NONE',  ( -4.275831445896958607E-31, -1.000000000000000000, -1.224646799147353207E-16 ) ) ;
#23 = ORIENTED_EDGE ( 'NONE', *, *, #162, .F. ) ;
#24 = PRODUCT_DEFINITION_SHAPE ( 'NONE', 'NONE',  #126 ) ;
#25 = CARTESIAN_POINT ( 'NONE',  ( 1.296961921504711989E-31, -4.549130044363977399E-33, 3.714646580166019078E-17 ) ) ;
#26 = APPROVAL ( #177, 'UNSPECIFIED' ) ;
#27 = DIRECTION ( 'NONE',  ( -3.491481338843133355E-15, 1.224646799147353207E-16, -1.000000000000000000 ) ) ;
#28 = CC_DESIGN_SECURITY_CLASSIFICATION ( #91, ( #236 ) ) ;
#29 = CALENDAR_DATE ( 2021, 17, 12 ) ;
#30 = DIRECTION ( 'NONE',  ( -3.469871996476932876E-31, -1.000000000000000000, -1.465023209095953179E-16 ) ) ;
#31 = CC_DESIGN_PERSON_AND_ORGANIZATION_ASSIGNMENT ( #174, #156, ( #236 ) ) ;
#32 = DIRECTION ( 'NONE',  ( 4.275831445896958607E-31, 1.000000000000000000, 1.224646799147353207E-16 ) ) ;
#33 = DATE_AND_TIME ( #267, #166 ) ;
#34 = DIRECTION ( 'NONE',  ( -3.491481338843133355E-15, 1.224646799147353207E-16, -1.000000000000000000 ) ) ;
#35 = FACE_OUTER_BOUND ( 'NONE', #43, .T. ) ;
#36 = VERTEX_POINT ( 'NONE', #15 ) ;
#37 = CC_DESIGN_PERSON_AND_ORGANIZATION_ASSIGNMENT ( #288, #216, ( #126 ) ) ;
#38 = VERTEX_POINT ( 'NONE', #200 ) ;
#39 = CIRCLE ( 'NONE', #208, 0.6179999999999994387 ) ;
#40 = ADVANCED_FACE ( 'NONE', ( #120 ), #210, .F. ) ;
#41 = CARTESIAN_POINT ( 'NONE',  ( 2.025059176529017031E-14, 0.6179999999999993276, 5.799999999999999822 ) ) ;
#42 = EDGE_LOOP ( 'NONE', ( #73 ) ) ;
#43 = EDGE_LOOP ( 'NONE', ( #277 ) ) ;
#44 = MANIFOLD_SOLID_BREP ( 'Corps-Déplacer/Copier1[2]', #187 ) ;
#45 = EDGE_LOOP ( 'NONE', ( #99 ) ) ;
#46 = ADVANCED_FACE ( 'NONE', ( #302 ), #289, .T. ) ;
#47 = CARTESIAN_POINT ( 'NONE',  ( 1.675911042644703695E-14, 4.634257728425131141E-33, 4.799999999999999822 ) ) ;
#48 = MANIFOLD_SOLID_BREP ( 'Corps-Déplacer/Copier1[1]', #80 ) ;
#49 = CARTESIAN_POINT ( 'NONE',  ( 1.047444401652940007E-13, 4.499279347985510559E-33, 30.00000000000000000 ) ) ;
#50 = PERSON_AND_ORGANIZATION_ROLE ( 'creator' ) ;
#51 = FACE_OUTER_BOUND ( 'NONE', #259, .T. ) ;
#52 = DIRECTION ( 'NONE',  ( 0.0000000000000000000, -1.000000000000000000, 0.0000000000000000000 ) ) ;
#53 = PERSON_AND_ORGANIZATION ( #144, #230 ) ;
#54 = FACE_OUTER_BOUND ( 'NONE', #274, .T. ) ;
#55 = APPROVAL_ROLE ( '' ) ;
#56 = APPROVAL_DATE_TIME ( #283, #279 ) ;
#57 = CARTESIAN_POINT ( 'NONE',  ( 6.149090605968797105E-16, 0.5550435135194299319, 0.1761169546449942169 ) ) ;
#58 = CONICAL_SURFACE ( 'NONE', #235, 0.6179999999999994387, 0.1919862177193695230 ) ;
#59 = AXIS2_PLACEMENT_3D ( 'NONE', #272, #109, #67 ) ;
#60 = ADVANCED_FACE ( 'NONE', ( #7, #194 ), #58, .T. ) ;
#61 = CARTESIAN_POINT ( 'NONE',  ( 2.205791549751543142E-14, -7.736875265340985985E-16, 6.317638090205028867 ) ) ;
#62 =( LENGTH_UNIT ( ) NAMED_UNIT ( * ) SI_UNIT ( .MILLI., .METRE. ) );
#63 = CONICAL_SURFACE ( 'NONE', #140, 0.7499999999999971134, 0.2617993877991451890 ) ;
#64 = ADVANCED_FACE ( 'NONE', ( #54, #155 ), #266, .T. ) ;
#65 = CIRCLE ( 'NONE', #250, 0.5999999999999990896 ) ;
#66 = VERTEX_POINT ( 'NONE', #12 ) ;
#67 = DIRECTION ( 'NONE',  ( 1.000000000000000000, 0.0000000000000000000, 0.0000000000000000000 ) ) ;
#68 = CARTESIAN_POINT ( 'NONE',  ( 6.484809607523559946E-32, -2.274565022181988700E-33, 1.857323290083009539E-17 ) ) ;
#69 = ORIENTED_EDGE ( 'NONE', *, *, #138, .F. ) ;
#70 = ADVANCED_FACE ( 'NONE', ( #158, #6 ), #96, .T. ) ;
#71 = ORIENTED_EDGE ( 'NONE', *, *, #119, .T. ) ;
#72 = EDGE_LOOP ( 'NONE', ( #167 ) ) ;
#73 = ORIENTED_EDGE ( 'NONE', *, *, #98, .F. ) ;
#74 = CC_DESIGN_PERSON_AND_ORGANIZATION_ASSIGNMENT ( #190, #269, ( #91 ) ) ;
#75 = AXIS2_PLACEMENT_3D ( 'NONE', #47, #145, #22 ) ;
#76 = CARTESIAN_POINT ( 'NONE',  ( 1.675911042644703695E-14, -5.878304635907294211E-16, 4.799999999999999822 ) ) ;
#77 = CYLINDRICAL_SURFACE ( 'NONE', #115, 0.6179999999999999938 ) ;
#78 = DIRECTION ( 'NONE',  ( 3.469871996476932876E-31, 1.000000000000000000, 1.465023209095953179E-16 ) ) ;
#79 = COORDINATED_UNIVERSAL_TIME_OFFSET ( 1, 0, .AHEAD. ) ;
#80 = CLOSED_SHELL ( 'NONE', ( #13, #116, #255, #157, #301, #64, #202 ) ) ;
#81 = FACE_OUTER_BOUND ( 'NONE', #20, .T. ) ;
#82 = TOROIDAL_SURFACE ( 'NONE', #191, 2.617999999999999883, 2.000000000000000000 ) ;
#83 = CARTESIAN_POINT ( 'NONE',  ( 1.047444401652940007E-13, -3.673940397442059178E-15, 30.00000000000000000 ) ) ;
#84 = DATE_TIME_ROLE ( 'classification_date' ) ;
#85 = CARTESIAN_POINT ( 'NONE',  ( 0.0000000000000000000, 0.0000000000000000000, 0.0000000000000000000 ) ) ;
#86 = CC_DESIGN_DATE_AND_TIME_ASSIGNMENT ( #33, #172, ( #126 ) ) ;
#87 = VERTEX_POINT ( 'NONE', #294 ) ;
#88 = AXIS2_PLACEMENT_3D ( 'NONE', #25, #27, #212 ) ;
#89 = DIRECTION ( 'NONE',  ( -3.491481338843133355E-15, 1.224646799147353207E-16, -1.000000000000000000 ) ) ;
#90 = AXIS2_PLACEMENT_3D ( 'NONE', #222, #153, #10 ) ;
#91 = SECURITY_CLASSIFICATION ( '', '', #218 ) ;
#92 = PERSON_AND_ORGANIZATION ( #144, #230 ) ;
#93 = EDGE_LOOP ( 'NONE', ( #237 ) ) ;
#94 = CC_DESIGN_PERSON_AND_ORGANIZATION_ASSIGNMENT ( #137, #16, ( #142 ) ) ;
#95 = EDGE_LOOP ( 'NONE', ( #141 ) ) ;
#96 = CONICAL_SURFACE ( 'NONE', #175, 0.5550435135194299319, 1.047197551196592746 ) ;
#97 = ORIENTED_EDGE ( 'NONE', *, *, #98, .T. ) ;
#98 = EDGE_CURVE ( 'NONE', #249, #249, #21, .T. ) ;
#99 = ORIENTED_EDGE ( 'NONE', *, *, #204, .T. ) ;
#100 = AXIS2_PLACEMENT_3D ( 'NONE', #76, #34, #102 ) ;
#101 = CC_DESIGN_APPROVAL ( #26, ( #236 ) ) ;
#102 = DIRECTION ( 'NONE',  ( 0.0000000000000000000, 1.000000000000000000, 0.0000000000000000000 ) ) ;
#103 = APPROVAL_DATE_TIME ( #245, #26 ) ;
#104 = EDGE_CURVE ( 'NONE', #66, #66, #39, .T. ) ;
#105 = DIRECTION ( 'NONE',  ( -3.491481338843133355E-15, 1.224646799147353207E-16, -1.000000000000000000 ) ) ;
#106 = AXIS2_PLACEMENT_3D ( 'NONE', #244, #173, #284 ) ;
#107 = APPROVAL_PERSON_ORGANIZATION ( #285, #26, #55 ) ;
#108 = CARTESIAN_POINT ( 'NONE',  ( 2.288992716139896090E-14, -8.028705672593238278E-16, 6.555935701773878854 ) ) ;
#109 = DIRECTION ( 'NONE',  ( 0.0000000000000000000, 0.0000000000000000000, 1.000000000000000000 ) ) ;
#110 = CARTESIAN_POINT ( 'NONE',  ( 2.288992716139896090E-14, 0.7499999999999963363, 6.555935701773878854 ) ) ;
#111 = VERTEX_POINT ( 'NONE', #41 ) ;
#112 = AXIS2_PLACEMENT_3D ( 'NONE', #85, #89, #133 ) ;
#113 = CYLINDRICAL_SURFACE ( 'NONE', #112, 0.6179999999999996607 ) ;
#114 = VERTEX_POINT ( 'NONE', #181 ) ;
#115 = AXIS2_PLACEMENT_3D ( 'NONE', #171, #122, #32 ) ;
#116 = ADVANCED_FACE ( 'NONE', ( #287, #81 ), #77, .T. ) ;
#117 = ORIENTED_EDGE ( 'NONE', *, *, #184, .T. ) ;
#118 = CIRCLE ( 'NONE', #17, 0.7499999999999971134 ) ;
#119 = EDGE_CURVE ( 'NONE', #295, #295, #118, .T. ) ;
#120 = FACE_OUTER_BOUND ( 'NONE', #45, .T. ) ;
#121 = FACE_OUTER_BOUND ( 'NONE', #280, .T. ) ;
#122 = DIRECTION ( 'NONE',  ( -3.491481338843133355E-15, 1.224646799147353207E-16, -1.000000000000000000 ) ) ;
#123 = CIRCLE ( 'NONE', #270, 0.6180000000000001048 ) ;
#124 = DIRECTION ( 'NONE',  ( -6.232782991544458571E-31, -1.000000000000000000, -1.754372447387549309E-16 ) ) ;
#125 = CALENDAR_DATE ( 2021, 17, 12 ) ;
#126 = PRODUCT_DEFINITION ( 'UNKNOWN', '', #236, #223 ) ;
#127 = DIRECTION ( 'NONE',  ( -3.491481338843133355E-15, 1.224646799147353207E-16, -1.000000000000000000 ) ) ;
#128 = DIRECTION ( 'NONE',  ( -3.491481338843133355E-15, 1.224646799147353207E-16, -1.000000000000000000 ) ) ;
#129 = APPROVAL_PERSON_ORGANIZATION ( #179, #279, #265 ) ;
#130 = CC_DESIGN_PERSON_AND_ORGANIZATION_ASSIGNMENT ( #53, #50, ( #236 ) ) ;
#131 = CARTESIAN_POINT ( 'NONE',  ( 1.042207179644675275E-13, -3.655570695454848748E-15, 29.84999999999999787 ) ) ;
#132 = DIRECTION ( 'NONE',  ( -3.491481338843133355E-15, 1.224646799147353207E-16, -1.000000000000000000 ) ) ;
#133 = DIRECTION ( 'NONE',  ( 4.275831445896957731E-31, 1.000000000000000000, 1.224646799147353207E-16 ) ) ;
#134 = FACE_OUTER_BOUND ( 'NONE', #72, .T. ) ;
#135 = LOCAL_TIME ( 13, 52, 46.00000000000000000, #239 ) ;
#136 = FACE_OUTER_BOUND ( 'NONE', #95, .T. ) ;
#137 = PERSON_AND_ORGANIZATION ( #144, #230 ) ;
#138 = EDGE_CURVE ( 'NONE', #247, #247, #198, .T. ) ;
#139 = DIRECTION ( 'NONE',  ( 3.491481338843133355E-15, -1.224646799147353207E-16, 1.000000000000000000 ) ) ;
#140 = AXIS2_PLACEMENT_3D ( 'NONE', #108, #178, #52 ) ;
#141 = ORIENTED_EDGE ( 'NONE', *, *, #162, .T. ) ;
#142 = PRODUCT ( '992520', '992520', '', ( #253 ) ) ;
#143 = EDGE_LOOP ( 'NONE', ( #97 ) ) ;
#144 = PERSON ( 'UNSPECIFIED', 'UNSPECIFIED', 'UNSPECIFIED', ('UNSPECIFIED'), ('UNSPECIFIED'), ('UNSPECIFIED') ) ;
#145 = DIRECTION ( 'NONE',  ( 3.491481338843133355E-15, -1.224646799147353207E-16, 1.000000000000000000 ) ) ;
#146 = CC_DESIGN_APPROVAL ( #279, ( #91 ) ) ;
#147 = EDGE_LOOP ( 'NONE', ( #71 ) ) ;
#148 = DIRECTION ( 'NONE',  ( -3.491481338843133355E-15, 1.224646799147353207E-16, -1.000000000000000000 ) ) ;
#149 = APPROVAL_STATUS ( 'not_yet_approved' ) ;
#150 = DIRECTION ( 'NONE',  ( 0.0000000000000000000, 1.000000000000000000, 0.0000000000000000000 ) ) ;
#151 = APPROVAL_PERSON_ORGANIZATION ( #92, #293, #273 ) ;
#152 = APPLICATION_CONTEXT ( 'configuration controlled 3d designs of mechanical parts and assemblies' ) ;
#153 = DIRECTION ( 'NONE',  ( -3.491481338843133355E-15, 1.224646799147353207E-16, -1.000000000000000000 ) ) ;
#154 = DATE_AND_TIME ( #197, #299 ) ;
#155 = FACE_BOUND ( 'NONE', #231, .T. ) ;
#156 = PERSON_AND_ORGANIZATION_ROLE ( 'design_supplier' ) ;
#157 = ADVANCED_FACE ( 'NONE', ( #215, #264 ), #63, .T. ) ;
#158 = FACE_BOUND ( 'NONE', #207, .T. ) ;
#159 = CARTESIAN_POINT ( 'NONE',  ( 1.675911042644703695E-14, 0.6179999999999993276, 4.799999999999999822 ) ) ;
#160 = DIRECTION ( 'NONE',  ( 0.0000000000000000000, 1.000000000000000000, 0.0000000000000000000 ) ) ;
#161 = CARTESIAN_POINT ( 'NONE',  ( 0.0000000000000000000, 0.0000000000000000000, 0.0000000000000000000 ) ) ;
#162 = EDGE_CURVE ( 'NONE', #38, #38, #9, .T. ) ;
#163 = APPLICATION_PROTOCOL_DEFINITION ( 'international standard', 'config_control_design', 1994, #186 ) ;
#164 = ORIENTED_EDGE ( 'NONE', *, *, #204, .F. ) ;
#165 = ORIENTED_EDGE ( 'NONE', *, *, #104, .F. ) ;
#166 = LOCAL_TIME ( 13, 52, 46.00000000000000000, #263 ) ;
#167 = ORIENTED_EDGE ( 'NONE', *, *, #184, .F. ) ;
#168 = LOCAL_TIME ( 13, 52, 46.00000000000000000, #213 ) ;
#169 = FACE_OUTER_BOUND ( 'NONE', #19, .T. ) ;
#170 = EDGE_CURVE ( 'NONE', #114, #114, #220, .T. ) ;
#171 = CARTESIAN_POINT ( 'NONE',  ( 0.0000000000000000000, 0.0000000000000000000, 0.0000000000000000000 ) ) ;
#172 = DATE_TIME_ROLE ( 'creation_date' ) ;
#173 = DIRECTION ( 'NONE',  ( 3.491481338843133355E-15, -1.224646799147353207E-16, 1.000000000000000000 ) ) ;
#174 = PERSON_AND_ORGANIZATION ( #144, #230 ) ;
#175 = AXIS2_PLACEMENT_3D ( 'NONE', #8, #5, #30 ) ;
#176 = DIRECTION ( 'NONE',  ( 0.0000000000000000000, 1.000000000000000000, 0.0000000000000000000 ) ) ;
#177 = APPROVAL_STATUS ( 'not_yet_approved' ) ;
#178 = DIRECTION ( 'NONE',  ( 3.491481338843133355E-15, -1.224646799147353207E-16, 1.000000000000000000 ) ) ;
#179 = PERSON_AND_ORGANIZATION ( #144, #230 ) ;
#180 =( NAMED_UNIT ( * ) PLANE_ANGLE_UNIT ( ) SI_UNIT ( $, .RADIAN. ) );
#181 = CARTESIAN_POINT ( 'NONE',  ( 1.675911042644703695E-14, 0.6179999999999993276, 4.799999999999999822 ) ) ;
#182 = AXIS2_PLACEMENT_3D ( 'NONE', #131, #262, #176 ) ;
#183 = CARTESIAN_POINT ( 'NONE',  ( 1.047444401652940007E-13, 0.5999999999999954259, 30.00000000000000000 ) ) ;
#184 = EDGE_CURVE ( 'NONE', #111, #111, #123, .T. ) ;
#185 = APPROVAL_STATUS ( 'not_yet_approved' ) ;
#186 = APPLICATION_CONTEXT ( 'configuration controlled 3d designs of mechanical parts and assemblies' ) ;
#187 = CLOSED_SHELL ( 'NONE', ( #40, #70, #60, #206, #46 ) ) ;
#188 = EDGE_LOOP ( 'NONE', ( #258 ) ) ;
#189 = CARTESIAN_POINT ( 'NONE',  ( 6.149090605968795133E-16, -2.156810647815716487E-17, 0.1761169546449941337 ) ) ;
#190 = PERSON_AND_ORGANIZATION ( #144, #230 ) ;
#191 = AXIS2_PLACEMENT_3D ( 'NONE', #271, #252, #248 ) ;
#192 = DIRECTION ( 'NONE',  ( 0.0000000000000000000, 1.000000000000000000, 0.0000000000000000000 ) ) ;
#193 = COORDINATED_UNIVERSAL_TIME_OFFSET ( 1, 0, .AHEAD. ) ;
#194 = FACE_OUTER_BOUND ( 'NONE', #205, .T. ) ;
#195 = DATE_AND_TIME ( #29, #135 ) ;
#196 = DIRECTION ( 'NONE',  ( 6.232782991544458571E-31, 1.000000000000000000, 1.754372447387549309E-16 ) ) ;
#197 = CALENDAR_DATE ( 2021, 17, 12 ) ;
#198 = CIRCLE ( 'NONE', #291, 0.5550435135194299319 ) ;
#199 = CARTESIAN_POINT ( 'NONE',  ( 1.745740669421566283E-15, -6.123233995736764803E-17, 0.4999999999999998890 ) ) ;
#200 = CARTESIAN_POINT ( 'NONE',  ( 1.042207179644675275E-13, 0.7499999999999954481, 29.84999999999999787 ) ) ;
#201 = UNCERTAINTY_MEASURE_WITH_UNIT (LENGTH_MEASURE( 1.000000000000000082E-05 ), #62, 'distance_accuracy_value', 'NONE');
#202 = ADVANCED_FACE ( 'NONE', ( #169 ), #260, .F. ) ;
#203 = FACE_OUTER_BOUND ( 'NONE', #143, .T. ) ;
#204 = EDGE_CURVE ( 'NONE', #36, #36, #214, .T. ) ;
#205 = EDGE_LOOP ( 'NONE', ( #275 ) ) ;
#206 = ADVANCED_FACE ( 'NONE', ( #51, #203 ), #113, .T. ) ;
#207 = EDGE_LOOP ( 'NONE', ( #164 ) ) ;
#208 = AXIS2_PLACEMENT_3D ( 'NONE', #243, #105, #196 ) ;
#209 =( GEOMETRIC_REPRESENTATION_CONTEXT ( 3 ) GLOBAL_UNCERTAINTY_ASSIGNED_CONTEXT ( ( #201 ) ) GLOBAL_UNIT_ASSIGNED_CONTEXT ( ( #62, #180, #298 ) ) REPRESENTATION_CONTEXT ( 'NONE', 'WORKASPACE' ) );
#210 = PLANE ( 'NONE',  #226 ) ;
#211 = ORIENTED_EDGE ( 'NONE', *, *, #170, .T. ) ;
#212 = DIRECTION ( 'NONE',  ( 4.275831445896957731E-31, 1.000000000000000000, 1.224646799147353207E-16 ) ) ;
#213 = COORDINATED_UNIVERSAL_TIME_OFFSET ( 1, 0, .AHEAD. ) ;
#214 = CIRCLE ( 'NONE', #88, 0.2500000000000000555 ) ;
#215 = FACE_BOUND ( 'NONE', #188, .T. ) ;
#216 = PERSON_AND_ORGANIZATION_ROLE ( 'creator' ) ;
#217 = CARTESIAN_POINT ( 'NONE',  ( 2.288992716139896090E-14, -8.028705672593238278E-16, 6.555935701773878854 ) ) ;
#218 = SECURITY_CLASSIFICATION_LEVEL ( 'unclassified' ) ;
#219 = DIRECTION ( 'NONE',  ( 0.0000000000000000000, 1.000000000000000000, 0.0000000000000000000 ) ) ;
#220 = CIRCLE ( 'NONE', #90, 0.6179999999999998828 ) ;
#221 = CC_DESIGN_APPROVAL ( #293, ( #126 ) ) ;
#222 = CARTESIAN_POINT ( 'NONE',  ( 1.675911042644703695E-14, -5.878304635907294211E-16, 4.799999999999999822 ) ) ;
#223 = DESIGN_CONTEXT ( 'detailed design', #152, 'design' ) ;
#224 = DIRECTION ( 'NONE',  ( 4.275831445896958607E-31, 1.000000000000000000, 1.224646799147353207E-16 ) ) ;
#225 = DIRECTION ( 'NONE',  ( -3.491481338843133355E-15, 1.224646799147353207E-16, -1.000000000000000000 ) ) ;
#226 = AXIS2_PLACEMENT_3D ( 'NONE', #68, #139, #18 ) ;
#227 = AXIS2_PLACEMENT_3D ( 'NONE', #61, #225, #160 ) ;
#228 = DIRECTION ( 'NONE',  ( 0.0000000000000000000, 1.000000000000000000, 0.0000000000000000000 ) ) ;
#229 = CYLINDRICAL_SURFACE ( 'NONE', #282, 0.7499999999999981126 ) ;
#230 = ORGANIZATION ( 'UNSPECIFIED', 'UNSPECIFIED', '' ) ;
#231 = EDGE_LOOP ( 'NONE', ( #234 ) ) ;
#232 = EDGE_LOOP ( 'NONE', ( #257 ) ) ;
#233 = EDGE_CURVE ( 'NONE', #87, #87, #276, .T. ) ;
#234 = ORIENTED_EDGE ( 'NONE', *, *, #286, .T. ) ;
#235 = AXIS2_PLACEMENT_3D ( 'NONE', #199, #268, #124 ) ;
#236 = PRODUCT_DEFINITION_FORMATION_WITH_SPECIFIED_SOURCE ( 'ANY', '', #142, .NOT_KNOWN. ) ;
#237 = ORIENTED_EDGE ( 'NONE', *, *, #170, .F. ) ;
#238 = DIRECTION ( 'NONE',  ( 4.275831445896958607E-31, 1.000000000000000000, 1.224646799147353207E-16 ) ) ;
#239 = COORDINATED_UNIVERSAL_TIME_OFFSET ( 1, 0, .AHEAD. ) ;
#240 = CARTESIAN_POINT ( 'NONE',  ( 2.025059176529017031E-14, -7.102951435054647665E-16, 5.799999999999999822 ) ) ;
#241 = CALENDAR_DATE ( 2021, 17, 12 ) ;
#242 = PRODUCT_RELATED_PRODUCT_CATEGORY ( 'detail', '', ( #142 ) ) ;
#243 = CARTESIAN_POINT ( 'NONE',  ( 1.745740669421566283E-15, -6.123233995736764803E-17, 0.4999999999999998890 ) ) ;
#244 = CARTESIAN_POINT ( 'NONE',  ( 1.675911042644703695E-14, 4.634257728425131141E-33, 4.799999999999999822 ) ) ;
#245 = DATE_AND_TIME ( #125, #1 ) ;
#246 = AXIS2_PLACEMENT_3D ( 'NONE', #83, #127, #219 ) ;
#247 = VERTEX_POINT ( 'NONE', #57 ) ;
#248 = DIRECTION ( 'NONE',  ( 4.390839217240654798E-31, 1.000000000000000000, 1.224646799147353207E-16 ) ) ;
#249 = VERTEX_POINT ( 'NONE', #159 ) ;
#250 = AXIS2_PLACEMENT_3D ( 'NONE', #11, #132, #228 ) ;
#251 = FACE_OUTER_BOUND ( 'NONE', #232, .T. ) ;
#252 = DIRECTION ( 'NONE',  ( -3.491481338843133355E-15, 1.224646799147353207E-16, -1.000000000000000000 ) ) ;
#253 = MECHANICAL_CONTEXT ( 'NONE', #186, 'mechanical' ) ;
#254 = ORIENTED_EDGE ( 'NONE', *, *, #286, .F. ) ;
#255 = ADVANCED_FACE ( 'NONE', ( #134, #35 ), #82, .F. ) ;
#256 = ORIENTED_EDGE ( 'NONE', *, *, #138, .T. ) ;
#257 = ORIENTED_EDGE ( 'NONE', *, *, #119, .F. ) ;
#258 = ORIENTED_EDGE ( 'NONE', *, *, #233, .F. ) ;
#259 = EDGE_LOOP ( 'NONE', ( #165 ) ) ;
#260 = PLANE ( 'NONE',  #4 ) ;
#261 = APPROVAL_DATE_TIME ( #195, #293 ) ;
#262 = DIRECTION ( 'NONE',  ( -3.491481338843133355E-15, 1.224646799147353207E-16, -1.000000000000000000 ) ) ;
#263 = COORDINATED_UNIVERSAL_TIME_OFFSET ( 1, 0, .AHEAD. ) ;
#264 = FACE_OUTER_BOUND ( 'NONE', #147, .T. ) ;
#265 = APPROVAL_ROLE ( '' ) ;
#266 = CONICAL_SURFACE ( 'NONE', #246, 0.5999999999999990896, 0.7853981633974457255 ) ;
#267 = CALENDAR_DATE ( 2021, 17, 12 ) ;
#268 = DIRECTION ( 'NONE',  ( 3.491481338843133355E-15, -1.224646799147353207E-16, 1.000000000000000000 ) ) ;
#269 = PERSON_AND_ORGANIZATION_ROLE ( 'classification_officer' ) ;
#270 = AXIS2_PLACEMENT_3D ( 'NONE', #240, #281, #150 ) ;
#271 = CARTESIAN_POINT ( 'NONE',  ( 2.025059176529017031E-14, -8.673617379884035472E-16, 5.799999999999999822 ) ) ;
#272 = CARTESIAN_POINT ( 'NONE',  ( 0.0000000000000000000, 0.0000000000000000000, 0.0000000000000000000 ) ) ;
#273 = APPROVAL_ROLE ( '' ) ;
#274 = EDGE_LOOP ( 'NONE', ( #23 ) ) ;
#275 = ORIENTED_EDGE ( 'NONE', *, *, #104, .T. ) ;
#276 = CIRCLE ( 'NONE', #227, 0.6861483474218593726 ) ;
#277 = ORIENTED_EDGE ( 'NONE', *, *, #233, .T. ) ;
#278 = PLANE ( 'NONE',  #75 ) ;
#279 = APPROVAL ( #149, 'UNSPECIFIED' ) ;
#280 = EDGE_LOOP ( 'NONE', ( #211 ) ) ;
#281 = DIRECTION ( 'NONE',  ( -3.491481338843133355E-15, 1.224646799147353207E-16, -1.000000000000000000 ) ) ;
#282 = AXIS2_PLACEMENT_3D ( 'NONE', #161, #296, #224 ) ;
#283 = DATE_AND_TIME ( #241, #168 ) ;
#284 = DIRECTION ( 'NONE',  ( -4.275831445896958607E-31, -1.000000000000000000, -1.224646799147353207E-16 ) ) ;
#285 = PERSON_AND_ORGANIZATION ( #144, #230 ) ;
#286 = EDGE_CURVE ( 'NONE', #14, #14, #65, .T. ) ;
#287 = FACE_OUTER_BOUND ( 'NONE', #93, .T. ) ;
#288 = PERSON_AND_ORGANIZATION ( #144, #230 ) ;
#289 = PLANE ( 'NONE',  #106 ) ;
#290 = SHAPE_DEFINITION_REPRESENTATION ( #24, #3 ) ;
#291 = AXIS2_PLACEMENT_3D ( 'NONE', #189, #128, #78 ) ;
#292 = DIRECTION ( 'NONE',  ( -3.491481338843133355E-15, 1.224646799147353207E-16, -1.000000000000000000 ) ) ;
#293 = APPROVAL ( #185, 'UNSPECIFIED' ) ;
#294 = CARTESIAN_POINT ( 'NONE',  ( 2.205791549751543142E-14, 0.6861483474218585954, 6.317638090205028867 ) ) ;
#295 = VERTEX_POINT ( 'NONE', #110 ) ;
#296 = DIRECTION ( 'NONE',  ( -3.491481338843133355E-15, 1.224646799147353207E-16, -1.000000000000000000 ) ) ;
#297 = CC_DESIGN_DATE_AND_TIME_ASSIGNMENT ( #154, #84, ( #91 ) ) ;
#298 =( NAMED_UNIT ( * ) SI_UNIT ( $, .STERADIAN. ) SOLID_ANGLE_UNIT ( ) );
#299 = LOCAL_TIME ( 13, 52, 46.00000000000000000, #193 ) ;
#300 = APPLICATION_PROTOCOL_DEFINITION ( 'international standard', 'config_control_design', 1994, #152 ) ;
#301 = ADVANCED_FACE ( 'NONE', ( #251, #136 ), #229, .T. ) ;
#302 = FACE_OUTER_BOUND ( 'NONE', #42, .T. ) ;
#303 = EDGE_LOOP ( 'NONE', ( #256 ) ) ;
ENDSEC;
END-ISO-10303-21;
