ISO-10303-21;
HEADER;
FILE_DESCRIPTION (( 'STEP AP203' ),
    '1' );
FILE_NAME ('992519.step',
    '2021-12-17T12:47:21',
    ( '' ),
    ( '' ),
    'SwSTEP 2.0',
    'SolidWorks 2019',
    '' );
FILE_SCHEMA (( 'CONFIG_CONTROL_DESIGN' ));
ENDSEC;

DATA;
#1 = EDGE_LOOP ( 'NONE', ( #252 ) ) ;
#2 = AXIS2_PLACEMENT_3D ( 'NONE', #166, #161, #112 ) ;
#3 = EDGE_CURVE ( 'NONE', #37, #37, #221, .T. ) ;
#4 = DIRECTION ( 'NONE',  ( -3.491481338843133355E-15, 1.224646799147353207E-16, -1.000000000000000000 ) ) ;
#5 = AXIS2_PLACEMENT_3D ( 'NONE', #84, #153, #247 ) ;
#6 = DATE_TIME_ROLE ( 'classification_date' ) ;
#7 = DIRECTION ( 'NONE',  ( 4.275831445896958607E-31, 1.000000000000000000, 1.224646799147353207E-16 ) ) ;
#8 = APPROVAL_STATUS ( 'not_yet_approved' ) ;
#9 = CARTESIAN_POINT ( 'NONE',  ( 2.135961922974675742E-14, -7.491945905511499123E-16, 6.117638090205015367 ) ) ;
#10 = AXIS2_PLACEMENT_3D ( 'NONE', #19, #110, #303 ) ;
#11 = CYLINDRICAL_SURFACE ( 'NONE', #42, 0.7499999999999978906 ) ;
#12 = CARTESIAN_POINT ( 'NONE',  ( 2.135961922974675742E-14, 0.6861483474218557088, 6.117638090205015367 ) ) ;
#13 = AXIS2_PLACEMENT_3D ( 'NONE', #225, #59, #81 ) ;
#14 = CARTESIAN_POINT ( 'NONE',  ( -1.068957861474239433E-31, 3.749399456654644020E-33, -3.061616997868383018E-17 ) ) ;
#15 = EDGE_LOOP ( 'NONE', ( #235 ) ) ;
#16 = DIRECTION ( 'NONE',  ( 0.0000000000000000000, 1.000000000000000000, 0.0000000000000000000 ) ) ;
#17 = EDGE_LOOP ( 'NONE', ( #65 ) ) ;
#18 = CYLINDRICAL_SURFACE ( 'NONE', #163, 0.6179999999999994387 ) ;
#19 = CARTESIAN_POINT ( 'NONE',  ( 1.675911042644703695E-14, 4.634257728425130456E-33, 4.799999999999999822 ) ) ;
#20 = AXIS2_PLACEMENT_3D ( 'NONE', #14, #63, #60 ) ;
#21 = CARTESIAN_POINT ( 'NONE',  ( 1.047444401652940007E-13, 0.5999999999999949818, 30.00000000000000000 ) ) ;
#22 = CARTESIAN_POINT ( 'NONE',  ( 2.138211768073756517E-47, 0.2500000000000000000, 0.0000000000000000000 ) ) ;
#23 = DATE_AND_TIME ( #234, #240 ) ;
#24 = PERSON_AND_ORGANIZATION_ROLE ( 'design_supplier' ) ;
#25 = EDGE_LOOP ( 'NONE', ( #117 ) ) ;
#26 = PRODUCT_DEFINITION_SHAPE ( 'NONE', 'NONE',  #246 ) ;
#27 = EDGE_LOOP ( 'NONE', ( #276 ) ) ;
#28 = FACE_OUTER_BOUND ( 'NONE', #156, .T. ) ;
#29 = APPROVAL_PERSON_ORGANIZATION ( #183, #170, #279 ) ;
#30 = DIRECTION ( 'NONE',  ( -3.491481338843133355E-15, 1.224646799147353207E-16, -1.000000000000000000 ) ) ;
#31 = CIRCLE ( 'NONE', #20, 0.2500000000000000000 ) ;
#32 = CARTESIAN_POINT ( 'NONE',  ( 0.0000000000000000000, 0.0000000000000000000, 0.0000000000000000000 ) ) ;
#33 = DIRECTION ( 'NONE',  ( 0.0000000000000000000, 1.000000000000000000, 0.0000000000000000000 ) ) ;
#34 = CC_DESIGN_DATE_AND_TIME_ASSIGNMENT ( #258, #6, ( #52 ) ) ;
#35 = CC_DESIGN_SECURITY_CLASSIFICATION ( #52, ( #226 ) ) ;
#36 = MANIFOLD_SOLID_BREP ( 'Corps-Déplacer/Copier1[1]', #48 ) ;
#37 = VERTEX_POINT ( 'NONE', #293 ) ;
#38 = EDGE_LOOP ( 'NONE', ( #109 ) ) ;
#39 = VERTEX_POINT ( 'NONE', #108 ) ;
#40 = CC_DESIGN_PERSON_AND_ORGANIZATION_ASSIGNMENT ( #141, #24, ( #226 ) ) ;
#41 =( LENGTH_UNIT ( ) NAMED_UNIT ( * ) SI_UNIT ( .MILLI., .METRE. ) );
#42 = AXIS2_PLACEMENT_3D ( 'NONE', #32, #56, #97 ) ;
#43 = VERTEX_POINT ( 'NONE', #180 ) ;
#44 = ADVANCED_FACE ( 'NONE', ( #115 ), #214, .F. ) ;
#45 = PERSON_AND_ORGANIZATION_ROLE ( 'creator' ) ;
#46 = ORIENTED_EDGE ( 'NONE', *, *, #188, .F. ) ;
#47 = CALENDAR_DATE ( 2021, 17, 12 ) ;
#48 = CLOSED_SHELL ( 'NONE', ( #44, #57, #210, #147, #142, #223, #154 ) ) ;
#49 = EDGE_LOOP ( 'NONE', ( #204 ) ) ;
#50 = APPLICATION_CONTEXT ( 'configuration controlled 3d designs of mechanical parts and assemblies' ) ;
#51 = FACE_OUTER_BOUND ( 'NONE', #15, .T. ) ;
#52 = SECURITY_CLASSIFICATION ( '', '', #213 ) ;
#53 = PLANE ( 'NONE',  #272 ) ;
#54 = CIRCLE ( 'NONE', #80, 0.7499999999999984457 ) ;
#55 = ADVANCED_BREP_SHAPE_REPRESENTATION ( '992519', ( #36, #139, #2 ), #266 ) ;
#56 = DIRECTION ( 'NONE',  ( -3.491481338843133355E-15, 1.224646799147353207E-16, -1.000000000000000000 ) ) ;
#57 = ADVANCED_FACE ( 'NONE', ( #94, #70 ), #237, .T. ) ;
#58 = TOROIDAL_SURFACE ( 'NONE', #5, 2.617999999999999883, 2.000000000000000000 ) ;
#59 = DIRECTION ( 'NONE',  ( 3.491481338843133355E-15, -1.224646799147353207E-16, 1.000000000000000000 ) ) ;
#60 = DIRECTION ( 'NONE',  ( 4.275831445896958607E-31, 1.000000000000000000, 1.224646799147353207E-16 ) ) ;
#61 = APPLICATION_CONTEXT ( 'configuration controlled 3d designs of mechanical parts and assemblies' ) ;
#62 = ORIENTED_EDGE ( 'NONE', *, *, #3, .F. ) ;
#63 = DIRECTION ( 'NONE',  ( -3.491481338843133355E-15, 1.224646799147353207E-16, -1.000000000000000000 ) ) ;
#64 = EDGE_LOOP ( 'NONE', ( #158 ) ) ;
#65 = ORIENTED_EDGE ( 'NONE', *, *, #194, .T. ) ;
#66 = CALENDAR_DATE ( 2021, 17, 12 ) ;
#67 = PERSON_AND_ORGANIZATION ( #236, #278 ) ;
#68 = COORDINATED_UNIVERSAL_TIME_OFFSET ( 1, 0, .AHEAD. ) ;
#69 = COORDINATED_UNIVERSAL_TIME_OFFSET ( 1, 0, .AHEAD. ) ;
#70 = FACE_OUTER_BOUND ( 'NONE', #85, .T. ) ;
#71 = CARTESIAN_POINT ( 'NONE',  ( 1.042207179644675275E-13, -3.655570695454848748E-15, 29.84999999999999787 ) ) ;
#72 = DATE_AND_TIME ( #287, #265 ) ;
#73 = DIRECTION ( 'NONE',  ( 0.0000000000000000000, 1.000000000000000000, 0.0000000000000000000 ) ) ;
#74 = DIRECTION ( 'NONE',  ( 3.491481338843133355E-15, -1.224646799147353207E-16, 1.000000000000000000 ) ) ;
#75 = FACE_OUTER_BOUND ( 'NONE', #136, .T. ) ;
#76 = CARTESIAN_POINT ( 'NONE',  ( 1.042207179644675275E-13, 0.7499999999999947820, 29.84999999999999787 ) ) ;
#77 = ADVANCED_FACE ( 'NONE', ( #122 ), #102, .T. ) ;
#78 = LOCAL_TIME ( 13, 47, 21.00000000000000000, #277 ) ;
#79 = CARTESIAN_POINT ( 'NONE',  ( 1.047444401652940007E-13, -3.673940397442059178E-15, 30.00000000000000000 ) ) ;
#80 = AXIS2_PLACEMENT_3D ( 'NONE', #71, #196, #73 ) ;
#81 = DIRECTION ( 'NONE',  ( -5.007281835824764053E-31, -1.000000000000000000, -1.409424538122466282E-16 ) ) ;
#82 = DIRECTION ( 'NONE',  ( -3.491481338843133355E-15, 1.224646799147353207E-16, -1.000000000000000000 ) ) ;
#83 = CC_DESIGN_PERSON_AND_ORGANIZATION_ASSIGNMENT ( #67, #92, ( #246 ) ) ;
#84 = CARTESIAN_POINT ( 'NONE',  ( 1.955229549752154679E-14, -8.673617379884035472E-16, 5.599999999999999645 ) ) ;
#85 = EDGE_LOOP ( 'NONE', ( #299 ) ) ;
#86 = VERTEX_POINT ( 'NONE', #22 ) ;
#87 = APPLICATION_PROTOCOL_DEFINITION ( 'international standard', 'config_control_design', 1994, #61 ) ;
#88 = CC_DESIGN_PERSON_AND_ORGANIZATION_ASSIGNMENT ( #186, #283, ( #52 ) ) ;
#89 = PERSON_AND_ORGANIZATION ( #236, #278 ) ;
#90 = LOCAL_TIME ( 13, 47, 21.00000000000000000, #69 ) ;
#91 = AXIS2_PLACEMENT_3D ( 'NONE', #79, #135, #16 ) ;
#92 = PERSON_AND_ORGANIZATION_ROLE ( 'creator' ) ;
#93 = DATE_AND_TIME ( #302, #149 ) ;
#94 = FACE_OUTER_BOUND ( 'NONE', #209, .T. ) ;
#95 = DIRECTION ( 'NONE',  ( -3.491481338843133355E-15, 1.224646799147353207E-16, -1.000000000000000000 ) ) ;
#96 = CONICAL_SURFACE ( 'NONE', #218, 0.7499999999999971134, 0.2617993877991353635 ) ;
#97 = DIRECTION ( 'NONE',  ( 4.275831445896958607E-31, 1.000000000000000000, 1.224646799147353207E-16 ) ) ;
#98 = FACE_OUTER_BOUND ( 'NONE', #1, .T. ) ;
#99 = ADVANCED_FACE ( 'NONE', ( #219 ), #53, .F. ) ;
#100 = APPROVAL_ROLE ( '' ) ;
#101 = CARTESIAN_POINT ( 'NONE',  ( 0.0000000000000000000, 0.0000000000000000000, 0.0000000000000000000 ) ) ;
#102 = PLANE ( 'NONE',  #260 ) ;
#103 = DIRECTION ( 'NONE',  ( -3.491481338843133355E-15, 1.224646799147353207E-16, -1.000000000000000000 ) ) ;
#104 = APPROVAL_PERSON_ORGANIZATION ( #185, #116, #281 ) ;
#105 = AXIS2_PLACEMENT_3D ( 'NONE', #222, #264, #243 ) ;
#106 = FACE_OUTER_BOUND ( 'NONE', #25, .T. ) ;
#107 = EDGE_CURVE ( 'NONE', #177, #177, #269, .T. ) ;
#108 = CARTESIAN_POINT ( 'NONE',  ( 1.955229549752154679E-14, 0.6179999999999992166, 5.599999999999999645 ) ) ;
#109 = ORIENTED_EDGE ( 'NONE', *, *, #230, .T. ) ;
#110 = DIRECTION ( 'NONE',  ( 3.491481338843133355E-15, -1.224646799147353207E-16, 1.000000000000000000 ) ) ;
#111 = ADVANCED_FACE ( 'NONE', ( #173, #98 ), #119, .T. ) ;
#112 = DIRECTION ( 'NONE',  ( 1.000000000000000000, 0.0000000000000000000, 0.0000000000000000000 ) ) ;
#113 = DATE_TIME_ROLE ( 'creation_date' ) ;
#114 = APPROVAL_STATUS ( 'not_yet_approved' ) ;
#115 = FACE_OUTER_BOUND ( 'NONE', #248, .T. ) ;
#116 = APPROVAL ( #114, 'UNSPECIFIED' ) ;
#117 = ORIENTED_EDGE ( 'NONE', *, *, #206, .F. ) ;
#118 = DIRECTION ( 'NONE',  ( -4.275831445896958607E-31, -1.000000000000000000, -1.224646799147353207E-16 ) ) ;
#119 = CONICAL_SURFACE ( 'NONE', #105, 0.6179999999999992166, 0.1919862177193689678 ) ;
#120 = APPROVAL_DATE_TIME ( #72, #289 ) ;
#121 = AXIS2_PLACEMENT_3D ( 'NONE', #178, #82, #227 ) ;
#122 = FACE_OUTER_BOUND ( 'NONE', #187, .T. ) ;
#123 = CARTESIAN_POINT ( 'NONE',  ( 1.675911042644703695E-14, 4.634257728425130456E-33, 4.799999999999999822 ) ) ;
#124 = PLANE ( 'NONE',  #295 ) ;
#125 = CARTESIAN_POINT ( 'NONE',  ( 1.396592535537253342E-15, -4.898587196589413075E-17, 0.4000000000000000222 ) ) ;
#126 = CC_DESIGN_DATE_AND_TIME_ASSIGNMENT ( #23, #113, ( #246 ) ) ;
#127 = CARTESIAN_POINT ( 'NONE',  ( 0.0000000000000000000, 0.0000000000000000000, 0.0000000000000000000 ) ) ;
#128 = VERTEX_POINT ( 'NONE', #12 ) ;
#129 = CC_DESIGN_APPROVAL ( #289, ( #52 ) ) ;
#130 = DIRECTION ( 'NONE',  ( -3.491481338843133355E-15, 1.224646799147353207E-16, -1.000000000000000000 ) ) ;
#131 = EDGE_CURVE ( 'NONE', #39, #39, #296, .T. ) ;
#132 = ORIENTED_EDGE ( 'NONE', *, *, #216, .T. ) ;
#133 = CARTESIAN_POINT ( 'NONE',  ( 1.396592535537253539E-15, 0.6179999999999992166, 0.4000000000000000777 ) ) ;
#134 = EDGE_LOOP ( 'NONE', ( #143 ) ) ;
#135 = DIRECTION ( 'NONE',  ( -3.491481338843133355E-15, 1.224646799147353207E-16, -1.000000000000000000 ) ) ;
#136 = EDGE_LOOP ( 'NONE', ( #259 ) ) ;
#137 = PERSON_AND_ORGANIZATION_ROLE ( 'design_owner' ) ;
#138 = AXIS2_PLACEMENT_3D ( 'NONE', #251, #130, #33 ) ;
#139 = MANIFOLD_SOLID_BREP ( 'Corps-Déplacer/Copier1[2]', #168 ) ;
#140 = COORDINATED_UNIVERSAL_TIME_OFFSET ( 1, 0, .AHEAD. ) ;
#141 = PERSON_AND_ORGANIZATION ( #236, #278 ) ;
#142 = ADVANCED_FACE ( 'NONE', ( #239, #51 ), #11, .T. ) ;
#143 = ORIENTED_EDGE ( 'NONE', *, *, #3, .T. ) ;
#144 = AXIS2_PLACEMENT_3D ( 'NONE', #101, #4, #7 ) ;
#145 = EDGE_LOOP ( 'NONE', ( #46 ) ) ;
#146 = CARTESIAN_POINT ( 'NONE',  ( 2.219163089363035632E-14, -7.783776312763775082E-16, 6.355935701773885782 ) ) ;
#147 = ADVANCED_FACE ( 'NONE', ( #193, #291 ), #96, .T. ) ;
#148 = DIRECTION ( 'NONE',  ( -3.491481338843133355E-15, 1.224646799147353207E-16, -1.000000000000000000 ) ) ;
#149 = LOCAL_TIME ( 13, 47, 21.00000000000000000, #68 ) ;
#150 = CARTESIAN_POINT ( 'NONE',  ( -5.344789307371197163E-32, 1.874699728327322010E-33, -1.530808498934191509E-17 ) ) ;
#151 = DIRECTION ( 'NONE',  ( 4.275831445896958607E-31, 1.000000000000000000, 1.224646799147353207E-16 ) ) ;
#152 = CIRCLE ( 'NONE', #121, 0.6179999999999997717 ) ;
#153 = DIRECTION ( 'NONE',  ( -3.491481338843133355E-15, 1.224646799147353207E-16, -1.000000000000000000 ) ) ;
#154 = ADVANCED_FACE ( 'NONE', ( #75 ), #124, .F. ) ;
#155 = FACE_BOUND ( 'NONE', #215, .T. ) ;
#156 = EDGE_LOOP ( 'NONE', ( #250 ) ) ;
#157 = AXIS2_PLACEMENT_3D ( 'NONE', #9, #292, #245 ) ;
#158 = ORIENTED_EDGE ( 'NONE', *, *, #230, .F. ) ;
#159 = ORIENTED_EDGE ( 'NONE', *, *, #107, .F. ) ;
#160 = ORIENTED_EDGE ( 'NONE', *, *, #249, .T. ) ;
#161 = DIRECTION ( 'NONE',  ( 0.0000000000000000000, 0.0000000000000000000, 1.000000000000000000 ) ) ;
#162 = AXIS2_PLACEMENT_3D ( 'NONE', #297, #197, #273 ) ;
#163 = AXIS2_PLACEMENT_3D ( 'NONE', #127, #270, #224 ) ;
#164 = APPROVAL_DATE_TIME ( #207, #170 ) ;
#165 = APPROVAL_DATE_TIME ( #93, #116 ) ;
#166 = CARTESIAN_POINT ( 'NONE',  ( 0.0000000000000000000, 0.0000000000000000000, 0.0000000000000000000 ) ) ;
#167 = DIRECTION ( 'NONE',  ( 0.0000000000000000000, 1.000000000000000000, 0.0000000000000000000 ) ) ;
#168 = CLOSED_SHELL ( 'NONE', ( #99, #271, #111, #254, #77 ) ) ;
#169 = CARTESIAN_POINT ( 'NONE',  ( 6.590456439991955647E-16, -2.311620942768792295E-17, 0.1887581745510814035 ) ) ;
#170 = APPROVAL ( #182, 'UNSPECIFIED' ) ;
#171 = APPROVAL_PERSON_ORGANIZATION ( #192, #289, #100 ) ;
#172 = DIRECTION ( 'NONE',  ( 0.0000000000000000000, -1.000000000000000000, 0.0000000000000000000 ) ) ;
#173 = FACE_BOUND ( 'NONE', #229, .T. ) ;
#174 = CIRCLE ( 'NONE', #138, 0.7499999999999971134 ) ;
#175 = PRODUCT_RELATED_PRODUCT_CATEGORY ( 'detail', '', ( #263 ) ) ;
#176 = FACE_OUTER_BOUND ( 'NONE', #284, .T. ) ;
#177 = VERTEX_POINT ( 'NONE', #133 ) ;
#178 = CARTESIAN_POINT ( 'NONE',  ( 1.675911042644703695E-14, -5.878304635907294211E-16, 4.799999999999999822 ) ) ;
#179 = AXIS2_PLACEMENT_3D ( 'NONE', #233, #95, #167 ) ;
#180 = CARTESIAN_POINT ( 'NONE',  ( 2.219163089363035632E-14, 0.7499999999999963363, 6.355935701773885782 ) ) ;
#181 = ORIENTED_EDGE ( 'NONE', *, *, #282, .F. ) ;
#182 = APPROVAL_STATUS ( 'not_yet_approved' ) ;
#183 = PERSON_AND_ORGANIZATION ( #236, #278 ) ;
#184 = CC_DESIGN_APPROVAL ( #116, ( #226 ) ) ;
#185 = PERSON_AND_ORGANIZATION ( #236, #278 ) ;
#186 = PERSON_AND_ORGANIZATION ( #236, #278 ) ;
#187 = EDGE_LOOP ( 'NONE', ( #62 ) ) ;
#188 = EDGE_CURVE ( 'NONE', #128, #128, #241, .T. ) ;
#189 = AXIS2_PLACEMENT_3D ( 'NONE', #169, #103, #217 ) ;
#190 = DIRECTION ( 'NONE',  ( -3.491481338843133355E-15, 1.224646799147353207E-16, -1.000000000000000000 ) ) ;
#191 = CARTESIAN_POINT ( 'NONE',  ( 1.955229549752154679E-14, -6.858022075225177566E-16, 5.599999999999999645 ) ) ;
#192 = PERSON_AND_ORGANIZATION ( #236, #278 ) ;
#193 = FACE_BOUND ( 'NONE', #145, .T. ) ;
#194 = EDGE_CURVE ( 'NONE', #205, #205, #201, .T. ) ;
#195 = DIRECTION ( 'NONE',  ( 3.491481338843133355E-15, -1.224646799147353207E-16, 1.000000000000000000 ) ) ;
#196 = DIRECTION ( 'NONE',  ( -3.491481338843133355E-15, 1.224646799147353207E-16, -1.000000000000000000 ) ) ;
#197 = DIRECTION ( 'NONE',  ( -3.491481338843133355E-15, 1.224646799147353207E-16, -1.000000000000000000 ) ) ;
#198 = CC_DESIGN_PERSON_AND_ORGANIZATION_ASSIGNMENT ( #257, #45, ( #226 ) ) ;
#199 = CC_DESIGN_APPROVAL ( #170, ( #246 ) ) ;
#200 = FACE_BOUND ( 'NONE', #231, .T. ) ;
#201 = CIRCLE ( 'NONE', #189, 0.5769387486664240283 ) ;
#202 = FACE_OUTER_BOUND ( 'NONE', #134, .T. ) ;
#203 = UNCERTAINTY_MEASURE_WITH_UNIT (LENGTH_MEASURE( 1.000000000000000082E-05 ), #41, 'distance_accuracy_value', 'NONE');
#204 = ORIENTED_EDGE ( 'NONE', *, *, #131, .F. ) ;
#205 = VERTEX_POINT ( 'NONE', #298 ) ;
#206 = EDGE_CURVE ( 'NONE', #232, #232, #54, .T. ) ;
#207 = DATE_AND_TIME ( #66, #78 ) ;
#208 = DESIGN_CONTEXT ( 'detailed design', #61, 'design' ) ;
#209 = EDGE_LOOP ( 'NONE', ( #285 ) ) ;
#210 = ADVANCED_FACE ( 'NONE', ( #262, #28 ), #58, .F. ) ;
#211 =( NAMED_UNIT ( * ) SI_UNIT ( $, .STERADIAN. ) SOLID_ANGLE_UNIT ( ) );
#212 = AXIS2_PLACEMENT_3D ( 'NONE', #125, #30, #238 ) ;
#213 = SECURITY_CLASSIFICATION_LEVEL ( 'unclassified' ) ;
#214 = PLANE ( 'NONE',  #10 ) ;
#215 = EDGE_LOOP ( 'NONE', ( #181 ) ) ;
#216 = EDGE_CURVE ( 'NONE', #267, #267, #280, .T. ) ;
#217 = DIRECTION ( 'NONE',  ( 5.007281835824764053E-31, 1.000000000000000000, 1.409424538122466282E-16 ) ) ;
#218 = AXIS2_PLACEMENT_3D ( 'NONE', #146, #74, #172 ) ;
#219 = FACE_OUTER_BOUND ( 'NONE', #27, .T. ) ;
#220 = CARTESIAN_POINT ( 'NONE',  ( 1.047444401652940007E-13, 4.499279347985507822E-33, 30.00000000000000000 ) ) ;
#221 = CIRCLE ( 'NONE', #179, 0.6179999999999997717 ) ;
#222 = CARTESIAN_POINT ( 'NONE',  ( 1.396592535537253342E-15, -4.898587196589413075E-17, 0.4000000000000000222 ) ) ;
#223 = ADVANCED_FACE ( 'NONE', ( #106, #200 ), #286, .T. ) ;
#224 = DIRECTION ( 'NONE',  ( 4.275831445896958607E-31, 1.000000000000000000, 1.224646799147353207E-16 ) ) ;
#225 = CARTESIAN_POINT ( 'NONE',  ( 6.590456439991955647E-16, -2.311620942768792295E-17, 0.1887581745510814035 ) ) ;
#226 = PRODUCT_DEFINITION_FORMATION_WITH_SPECIFIED_SOURCE ( 'ANY', '', #263, .NOT_KNOWN. ) ;
#227 = DIRECTION ( 'NONE',  ( 0.0000000000000000000, 1.000000000000000000, 0.0000000000000000000 ) ) ;
#228 = AXIS2_PLACEMENT_3D ( 'NONE', #191, #148, #290 ) ;
#229 = EDGE_LOOP ( 'NONE', ( #274 ) ) ;
#230 = EDGE_CURVE ( 'NONE', #43, #43, #174, .T. ) ;
#231 = EDGE_LOOP ( 'NONE', ( #132 ) ) ;
#232 = VERTEX_POINT ( 'NONE', #76 ) ;
#233 = CARTESIAN_POINT ( 'NONE',  ( 1.675911042644703695E-14, -5.878304635907294211E-16, 4.799999999999999822 ) ) ;
#234 = CALENDAR_DATE ( 2021, 17, 12 ) ;
#235 = ORIENTED_EDGE ( 'NONE', *, *, #206, .T. ) ;
#236 = PERSON ( 'UNSPECIFIED', 'UNSPECIFIED', 'UNSPECIFIED', ('UNSPECIFIED'), ('UNSPECIFIED'), ('UNSPECIFIED') ) ;
#237 = CYLINDRICAL_SURFACE ( 'NONE', #144, 0.6179999999999998828 ) ;
#238 = DIRECTION ( 'NONE',  ( 3.116391495772230161E-31, 1.000000000000000000, 8.771862236937749009E-17 ) ) ;
#239 = FACE_OUTER_BOUND ( 'NONE', #64, .T. ) ;
#240 = LOCAL_TIME ( 13, 47, 21.00000000000000000, #140 ) ;
#241 = CIRCLE ( 'NONE', #157, 0.6861483474218564860 ) ;
#242 = COORDINATED_UNIVERSAL_TIME_OFFSET ( 1, 0, .AHEAD. ) ;
#243 = DIRECTION ( 'NONE',  ( -3.116391495772230161E-31, -1.000000000000000000, -8.771862236937749009E-17 ) ) ;
#244 = DIRECTION ( 'NONE',  ( 3.491481338843133355E-15, -1.224646799147353207E-16, 1.000000000000000000 ) ) ;
#245 = DIRECTION ( 'NONE',  ( 0.0000000000000000000, 1.000000000000000000, 0.0000000000000000000 ) ) ;
#246 = PRODUCT_DEFINITION ( 'UNKNOWN', '', #226, #208 ) ;
#247 = DIRECTION ( 'NONE',  ( 4.390839217240654798E-31, 1.000000000000000000, 1.224646799147353207E-16 ) ) ;
#248 = EDGE_LOOP ( 'NONE', ( #160 ) ) ;
#249 = EDGE_CURVE ( 'NONE', #256, #256, #152, .T. ) ;
#250 = ORIENTED_EDGE ( 'NONE', *, *, #188, .T. ) ;
#251 = CARTESIAN_POINT ( 'NONE',  ( 2.219163089363035632E-14, -7.783776312763775082E-16, 6.355935701773885782 ) ) ;
#252 = ORIENTED_EDGE ( 'NONE', *, *, #107, .T. ) ;
#253 = MECHANICAL_CONTEXT ( 'NONE', #50, 'mechanical' ) ;
#254 = ADVANCED_FACE ( 'NONE', ( #176, #202 ), #18, .T. ) ;
#255 = CONICAL_SURFACE ( 'NONE', #13, 0.5769387486664240283, 1.047197551196592968 ) ;
#256 = VERTEX_POINT ( 'NONE', #275 ) ;
#257 = PERSON_AND_ORGANIZATION ( #236, #278 ) ;
#258 = DATE_AND_TIME ( #47, #90 ) ;
#259 = ORIENTED_EDGE ( 'NONE', *, *, #216, .F. ) ;
#260 = AXIS2_PLACEMENT_3D ( 'NONE', #123, #195, #118 ) ;
#261 = SHAPE_DEFINITION_REPRESENTATION ( #26, #55 ) ;
#262 = FACE_OUTER_BOUND ( 'NONE', #49, .T. ) ;
#263 = PRODUCT ( '992519', '992519', '', ( #253 ) ) ;
#264 = DIRECTION ( 'NONE',  ( 3.491481338843133355E-15, -1.224646799147353207E-16, 1.000000000000000000 ) ) ;
#265 = LOCAL_TIME ( 13, 47, 21.00000000000000000, #242 ) ;
#266 =( GEOMETRIC_REPRESENTATION_CONTEXT ( 3 ) GLOBAL_UNCERTAINTY_ASSIGNED_CONTEXT ( ( #203 ) ) GLOBAL_UNIT_ASSIGNED_CONTEXT ( ( #41, #300, #211 ) ) REPRESENTATION_CONTEXT ( 'NONE', 'WORKASPACE' ) );
#267 = VERTEX_POINT ( 'NONE', #21 ) ;
#268 = CC_DESIGN_PERSON_AND_ORGANIZATION_ASSIGNMENT ( #89, #137, ( #263 ) ) ;
#269 = CIRCLE ( 'NONE', #212, 0.6179999999999992166 ) ;
#270 = DIRECTION ( 'NONE',  ( -3.491481338843133355E-15, 1.224646799147353207E-16, -1.000000000000000000 ) ) ;
#271 = ADVANCED_FACE ( 'NONE', ( #155, #294 ), #255, .T. ) ;
#272 = AXIS2_PLACEMENT_3D ( 'NONE', #150, #244, #288 ) ;
#273 = DIRECTION ( 'NONE',  ( 0.0000000000000000000, 1.000000000000000000, 0.0000000000000000000 ) ) ;
#274 = ORIENTED_EDGE ( 'NONE', *, *, #194, .F. ) ;
#275 = CARTESIAN_POINT ( 'NONE',  ( 1.675911042644703695E-14, 0.6179999999999992166, 4.799999999999999822 ) ) ;
#276 = ORIENTED_EDGE ( 'NONE', *, *, #282, .T. ) ;
#277 = COORDINATED_UNIVERSAL_TIME_OFFSET ( 1, 0, .AHEAD. ) ;
#278 = ORGANIZATION ( 'UNSPECIFIED', 'UNSPECIFIED', '' ) ;
#279 = APPROVAL_ROLE ( '' ) ;
#280 = CIRCLE ( 'NONE', #162, 0.5999999999999986455 ) ;
#281 = APPROVAL_ROLE ( '' ) ;
#282 = EDGE_CURVE ( 'NONE', #86, #86, #31, .T. ) ;
#283 = PERSON_AND_ORGANIZATION_ROLE ( 'classification_officer' ) ;
#284 = EDGE_LOOP ( 'NONE', ( #159 ) ) ;
#285 = ORIENTED_EDGE ( 'NONE', *, *, #249, .F. ) ;
#286 = CONICAL_SURFACE ( 'NONE', #91, 0.5999999999999986455, 0.7853981633974450594 ) ;
#287 = CALENDAR_DATE ( 2021, 17, 12 ) ;
#288 = DIRECTION ( 'NONE',  ( -4.275831445896958607E-31, -1.000000000000000000, -1.224646799147353207E-16 ) ) ;
#289 = APPROVAL ( #8, 'UNSPECIFIED' ) ;
#290 = DIRECTION ( 'NONE',  ( 0.0000000000000000000, 1.000000000000000000, 0.0000000000000000000 ) ) ;
#291 = FACE_OUTER_BOUND ( 'NONE', #38, .T. ) ;
#292 = DIRECTION ( 'NONE',  ( -3.491481338843133355E-15, 1.224646799147353207E-16, -1.000000000000000000 ) ) ;
#293 = CARTESIAN_POINT ( 'NONE',  ( 1.675911042644703695E-14, 0.6179999999999992166, 4.799999999999999822 ) ) ;
#294 = FACE_OUTER_BOUND ( 'NONE', #17, .T. ) ;
#295 = AXIS2_PLACEMENT_3D ( 'NONE', #220, #190, #151 ) ;
#296 = CIRCLE ( 'NONE', #228, 0.6179999999999998828 ) ;
#297 = CARTESIAN_POINT ( 'NONE',  ( 1.047444401652940007E-13, -3.673940397442059178E-15, 30.00000000000000000 ) ) ;
#298 = CARTESIAN_POINT ( 'NONE',  ( 6.590456439991958605E-16, 0.5769387486664240283, 0.1887581745510814868 ) ) ;
#299 = ORIENTED_EDGE ( 'NONE', *, *, #131, .T. ) ;
#300 =( NAMED_UNIT ( * ) PLANE_ANGLE_UNIT ( ) SI_UNIT ( $, .RADIAN. ) );
#301 = APPLICATION_PROTOCOL_DEFINITION ( 'international standard', 'config_control_design', 1994, #50 ) ;
#302 = CALENDAR_DATE ( 2021, 17, 12 ) ;
#303 = DIRECTION ( 'NONE',  ( -4.275831445896958607E-31, -1.000000000000000000, -1.224646799147353207E-16 ) ) ;
ENDSEC;
END-ISO-10303-21;
