ISO-10303-21;
HEADER;
FILE_DESCRIPTION (( 'STEP AP203' ),
    '1' );
FILE_NAME ('992518.step',
    '2021-12-17T12:52:45',
    ( '' ),
    ( '' ),
    'SwSTEP 2.0',
    'SolidWorks 2019',
    '' );
FILE_SCHEMA (( 'CONFIG_CONTROL_DESIGN' ));
ENDSEC;

DATA;
#1 = CC_DESIGN_DATE_AND_TIME_ASSIGNMENT ( #240, #283, ( #5 ) ) ;
#2 = DIRECTION ( 'NONE',  ( 4.304150513271531474E-31, 1.000000000000000000, 1.211510665482262390E-16 ) ) ;
#3 = EDGE_CURVE ( 'NONE', #46, #46, #285, .T. ) ;
#4 = AXIS2_PLACEMENT_3D ( 'NONE', #79, #189, #264 ) ;
#5 = SECURITY_CLASSIFICATION ( '', '', #217 ) ;
#6 = APPROVAL_STATUS ( 'not_yet_approved' ) ;
#7 = CYLINDRICAL_SURFACE ( 'NONE', #4, 0.5179999999999997939 ) ;
#8 = DATE_TIME_ROLE ( 'creation_date' ) ;
#9 = EDGE_LOOP ( 'NONE', ( #103 ) ) ;
#10 = AXIS2_PLACEMENT_3D ( 'NONE', #302, #70, #157 ) ;
#11 = APPROVAL_DATE_TIME ( #167, #29 ) ;
#12 = CARTESIAN_POINT ( 'NONE',  ( 1.047444401652940007E-13, 4.499279347985510559E-33, 30.00000000000000000 ) ) ;
#13 = ADVANCED_FACE ( 'NONE', ( #146, #261 ), #7, .T. ) ;
#14 = PLANE ( 'NONE',  #215 ) ;
#15 = DIRECTION ( 'NONE',  ( 4.393384763308466688E-31, 1.000000000000000000, 1.224646799147353207E-16 ) ) ;
#16 = DIRECTION ( 'NONE',  ( -3.491481338843133355E-15, 1.224646799147353207E-16, -1.000000000000000000 ) ) ;
#17 = CARTESIAN_POINT ( 'NONE',  ( 2.139978066534865433E-14, -7.506032640849835840E-16, 6.129140782530789977 ) ) ;
#18 = CONICAL_SURFACE ( 'NONE', #232, 0.5999999999999990896, 0.7853981633974457255 ) ;
#19 = CARTESIAN_POINT ( 'NONE',  ( 1.745740669421566678E-14, 0.5179999999999991278, 5.000000000000000000 ) ) ;
#20 = PRODUCT_DEFINITION_SHAPE ( 'NONE', 'NONE',  #139 ) ;
#21 = CARTESIAN_POINT ( 'NONE',  ( 4.731839565957903938E-32, 0.2099999999999999922, 1.355252715606880543E-17 ) ) ;
#22 = LOCAL_TIME ( 13, 52, 45.00000000000000000, #47 ) ;
#23 = VERTEX_POINT ( 'NONE', #136 ) ;
#24 = PERSON_AND_ORGANIZATION ( #110, #33 ) ;
#25 = EDGE_LOOP ( 'NONE', ( #28 ) ) ;
#26 = EDGE_LOOP ( 'NONE', ( #142 ) ) ;
#27 = CALENDAR_DATE ( 2021, 17, 12 ) ;
#28 = ORIENTED_EDGE ( 'NONE', *, *, #128, .F. ) ;
#29 = APPROVAL ( #173, 'UNSPECIFIED' ) ;
#30 = COORDINATED_UNIVERSAL_TIME_OFFSET ( 1, 0, .AHEAD. ) ;
#31 = AXIS2_PLACEMENT_3D ( 'NONE', #187, #192, #282 ) ;
#32 = CALENDAR_DATE ( 2021, 17, 12 ) ;
#33 = ORGANIZATION ( 'UNSPECIFIED', 'UNSPECIFIED', '' ) ;
#34 = ORIENTED_EDGE ( 'NONE', *, *, #251, .F. ) ;
#35 = DIRECTION ( 'NONE',  ( 4.275831445896958607E-31, 1.000000000000000000, 1.224646799147353207E-16 ) ) ;
#36 = DIRECTION ( 'NONE',  ( 0.0000000000000000000, 1.000000000000000000, 0.0000000000000000000 ) ) ;
#37 = PLANE ( 'NONE',  #102 ) ;
#38 = DIRECTION ( 'NONE',  ( -3.491481338843133355E-15, 1.224646799147353207E-16, -1.000000000000000000 ) ) ;
#39 = ADVANCED_FACE ( 'NONE', ( #241, #123 ), #244, .F. ) ;
#40 = DIRECTION ( 'NONE',  ( -4.275831445896958607E-31, -1.000000000000000000, -1.224646799147353207E-16 ) ) ;
#41 = DIRECTION ( 'NONE',  ( 4.275831445896958607E-31, 1.000000000000000000, 1.224646799147353207E-16 ) ) ;
#42 = VERTEX_POINT ( 'NONE', #94 ) ;
#43 = CC_DESIGN_PERSON_AND_ORGANIZATION_ASSIGNMENT ( #184, #288, ( #5 ) ) ;
#44 = CARTESIAN_POINT ( 'NONE',  ( 2.139978066534865433E-14, 0.7499999999999953371, 6.129140782530789977 ) ) ;
#45 = APPROVAL_PERSON_ORGANIZATION ( #234, #29, #238 ) ;
#46 = VERTEX_POINT ( 'NONE', #274 ) ;
#47 = COORDINATED_UNIVERSAL_TIME_OFFSET ( 1, 0, .AHEAD. ) ;
#48 = CALENDAR_DATE ( 2021, 17, 12 ) ;
#49 = ORIENTED_EDGE ( 'NONE', *, *, #3, .T. ) ;
#50 = AXIS2_PLACEMENT_3D ( 'NONE', #59, #176, #105 ) ;
#51 = AXIS2_PLACEMENT_3D ( 'NONE', #298, #38, #174 ) ;
#52 = ORIENTED_EDGE ( 'NONE', *, *, #128, .T. ) ;
#53 = PERSON_AND_ORGANIZATION_ROLE ( 'design_owner' ) ;
#54 = ORIENTED_EDGE ( 'NONE', *, *, #100, .F. ) ;
#55 = ORIENTED_EDGE ( 'NONE', *, *, #100, .T. ) ;
#56 = EDGE_CURVE ( 'NONE', #65, #65, #111, .T. ) ;
#57 = AXIS2_PLACEMENT_3D ( 'NONE', #17, #153, #227 ) ;
#58 = FACE_OUTER_BOUND ( 'NONE', #172, .T. ) ;
#59 = CARTESIAN_POINT ( 'NONE',  ( 1.396592535537253342E-14, -4.898587196589412829E-16, 4.000000000000000000 ) ) ;
#60 = DIRECTION ( 'NONE',  ( 4.275831445896958607E-31, 1.000000000000000000, 1.224646799147353207E-16 ) ) ;
#61 = FACE_OUTER_BOUND ( 'NONE', #211, .T. ) ;
#62 = EDGE_CURVE ( 'NONE', #42, #42, #158, .T. ) ;
#63 = AXIS2_PLACEMENT_3D ( 'NONE', #155, #247, #131 ) ;
#64 = CARTESIAN_POINT ( 'NONE',  ( 2.139978066534865433E-14, -7.506032640849835840E-16, 6.129140782530789977 ) ) ;
#65 = VERTEX_POINT ( 'NONE', #134 ) ;
#66 = ADVANCED_FACE ( 'NONE', ( #177, #270 ), #222, .T. ) ;
#67 = VERTEX_POINT ( 'NONE', #21 ) ;
#68 =( GEOMETRIC_REPRESENTATION_CONTEXT ( 3 ) GLOBAL_UNCERTAINTY_ASSIGNED_CONTEXT ( ( #150 ) ) GLOBAL_UNIT_ASSIGNED_CONTEXT ( ( #69, #230, #114 ) ) REPRESENTATION_CONTEXT ( 'NONE', 'WORKASPACE' ) );
#69 =( LENGTH_UNIT ( ) NAMED_UNIT ( * ) SI_UNIT ( .MILLI., .METRE. ) );
#70 = DIRECTION ( 'NONE',  ( 3.491481338843133355E-15, -1.224646799147353207E-16, 1.000000000000000000 ) ) ;
#71 = ADVANCED_FACE ( 'NONE', ( #296, #246 ), #138, .T. ) ;
#72 = CIRCLE ( 'NONE', #63, 0.5179999999999996829 ) ;
#73 = PERSON_AND_ORGANIZATION ( #110, #33 ) ;
#74 = APPROVAL_ROLE ( '' ) ;
#75 = ORIENTED_EDGE ( 'NONE', *, *, #56, .T. ) ;
#76 = SHAPE_DEFINITION_REPRESENTATION ( #20, #297 ) ;
#77 = EDGE_LOOP ( 'NONE', ( #290 ) ) ;
#78 = MECHANICAL_CONTEXT ( 'NONE', #127, 'mechanical' ) ;
#79 = CARTESIAN_POINT ( 'NONE',  ( 0.0000000000000000000, 0.0000000000000000000, 0.0000000000000000000 ) ) ;
#80 = APPLICATION_PROTOCOL_DEFINITION ( 'international standard', 'config_control_design', 1994, #106 ) ;
#81 = ADVANCED_FACE ( 'NONE', ( #154, #58 ), #303, .T. ) ;
#82 = EDGE_LOOP ( 'NONE', ( #209 ) ) ;
#83 = PRODUCT_RELATED_PRODUCT_CATEGORY ( 'detail', '', ( #295 ) ) ;
#84 = LOCAL_TIME ( 13, 52, 45.00000000000000000, #145 ) ;
#85 = DIRECTION ( 'NONE',  ( -3.491481338843133355E-15, 1.224646799147353207E-16, -1.000000000000000000 ) ) ;
#86 = PLANE ( 'NONE',  #124 ) ;
#87 = CARTESIAN_POINT ( 'NONE',  ( 1.745740669421566678E-14, -4.336808689942017736E-16, 5.000000000000000000 ) ) ;
#88 = CARTESIAN_POINT ( 'NONE',  ( 1.745740669421566283E-15, -6.123233995736764803E-17, 0.4999999999999998890 ) ) ;
#89 = AXIS2_PLACEMENT_3D ( 'NONE', #229, #159, #252 ) ;
#90 = CARTESIAN_POINT ( 'NONE',  ( 1.047444401652940007E-13, -3.673940397442059178E-15, 30.00000000000000000 ) ) ;
#91 = PLANE ( 'NONE',  #10 ) ;
#92 = VERTEX_POINT ( 'NONE', #19 ) ;
#93 = AXIS2_PLACEMENT_3D ( 'NONE', #88, #301, #221 ) ;
#94 = CARTESIAN_POINT ( 'NONE',  ( 1.396592535537253342E-14, 0.5179999999999991278, 4.000000000000000000 ) ) ;
#95 = ADVANCED_FACE ( 'NONE', ( #201, #198 ), #18, .T. ) ;
#96 = DIRECTION ( 'NONE',  ( 0.0000000000000000000, 1.000000000000000000, 0.0000000000000000000 ) ) ;
#97 = DIRECTION ( 'NONE',  ( -3.491481338843133355E-15, 1.224646799147353207E-16, -1.000000000000000000 ) ) ;
#98 = DATE_AND_TIME ( #32, #22 ) ;
#99 = EDGE_LOOP ( 'NONE', ( #286 ) ) ;
#100 = EDGE_CURVE ( 'NONE', #205, #205, #72, .T. ) ;
#101 = EDGE_LOOP ( 'NONE', ( #75 ) ) ;
#102 = AXIS2_PLACEMENT_3D ( 'NONE', #224, #249, #273 ) ;
#103 = ORIENTED_EDGE ( 'NONE', *, *, #269, .F. ) ;
#104 = ORIENTED_EDGE ( 'NONE', *, *, #216, .F. ) ;
#105 = DIRECTION ( 'NONE',  ( 0.0000000000000000000, 1.000000000000000000, 0.0000000000000000000 ) ) ;
#106 = APPLICATION_CONTEXT ( 'configuration controlled 3d designs of mechanical parts and assemblies' ) ;
#107 = DIRECTION ( 'NONE',  ( -3.491481338843133355E-15, 1.224646799147353207E-16, -1.000000000000000000 ) ) ;
#108 = CARTESIAN_POINT ( 'NONE',  ( 1.396592535537253342E-14, 3.884377837094200968E-33, 4.000000000000000000 ) ) ;
#109 = DIRECTION ( 'NONE',  ( 4.275831445896958607E-31, 1.000000000000000000, 1.224646799147353207E-16 ) ) ;
#110 = PERSON ( 'UNSPECIFIED', 'UNSPECIFIED', 'UNSPECIFIED', ('UNSPECIFIED'), ('UNSPECIFIED'), ('UNSPECIFIED') ) ;
#111 = CIRCLE ( 'NONE', #279, 0.5861483474218560641 ) ;
#112 = DIRECTION ( 'NONE',  ( 3.491481338843133355E-15, -1.224646799147353207E-16, 1.000000000000000000 ) ) ;
#113 = PRODUCT_DEFINITION_FORMATION_WITH_SPECIFIED_SOURCE ( 'ANY', '', #295, .NOT_KNOWN. ) ;
#114 =( NAMED_UNIT ( * ) SI_UNIT ( $, .STERADIAN. ) SOLID_ANGLE_UNIT ( ) );
#115 = AXIS2_PLACEMENT_3D ( 'NONE', #64, #206, #96 ) ;
#116 = CC_DESIGN_PERSON_AND_ORGANIZATION_ASSIGNMENT ( #188, #186, ( #113 ) ) ;
#117 = VERTEX_POINT ( 'NONE', #44 ) ;
#118 = DIRECTION ( 'NONE',  ( 0.0000000000000000000, 0.0000000000000000000, 1.000000000000000000 ) ) ;
#119 = DIRECTION ( 'NONE',  ( 1.000000000000000000, 0.0000000000000000000, 0.0000000000000000000 ) ) ;
#120 = EDGE_LOOP ( 'NONE', ( #237 ) ) ;
#121 = EDGE_LOOP ( 'NONE', ( #104 ) ) ;
#122 = APPROVAL_DATE_TIME ( #140, #208 ) ;
#123 = FACE_OUTER_BOUND ( 'NONE', #101, .T. ) ;
#124 = AXIS2_PLACEMENT_3D ( 'NONE', #108, #175, #40 ) ;
#125 = APPROVAL_ROLE ( '' ) ;
#126 = DIRECTION ( 'NONE',  ( -3.491481338843133355E-15, 1.224646799147353207E-16, -1.000000000000000000 ) ) ;
#127 = APPLICATION_CONTEXT ( 'configuration controlled 3d designs of mechanical parts and assemblies' ) ;
#128 = EDGE_CURVE ( 'NONE', #67, #67, #228, .T. ) ;
#129 = DIRECTION ( 'NONE',  ( -3.491481338843133355E-15, 1.224646799147353207E-16, -1.000000000000000000 ) ) ;
#130 = FACE_OUTER_BOUND ( 'NONE', #120, .T. ) ;
#131 = DIRECTION ( 'NONE',  ( 0.0000000000000000000, 1.000000000000000000, 0.0000000000000000000 ) ) ;
#132 = CARTESIAN_POINT ( 'NONE',  ( 1.047444401652940007E-13, 0.5999999999999954259, 30.00000000000000000 ) ) ;
#133 = FACE_OUTER_BOUND ( 'NONE', #263, .T. ) ;
#134 = CARTESIAN_POINT ( 'NONE',  ( 1.926473042644088056E-14, 0.5861483474218553980, 5.517638090205016610 ) ) ;
#135 = CC_DESIGN_PERSON_AND_ORGANIZATION_ASSIGNMENT ( #243, #53, ( #295 ) ) ;
#136 = CARTESIAN_POINT ( 'NONE',  ( 4.786712381607167817E-16, 0.4474587815757772868, 0.1370968914642171910 ) ) ;
#137 = MANIFOLD_SOLID_BREP ( 'Corps-Déplacer/Copier1[1]', #162 ) ;
#138 = CONICAL_SURFACE ( 'NONE', #57, 0.7499999999999961142, 0.2617993877991367513 ) ;
#139 = PRODUCT_DEFINITION ( 'UNKNOWN', '', #113, #219 ) ;
#140 = DATE_AND_TIME ( #48, #253 ) ;
#141 = EDGE_LOOP ( 'NONE', ( #49 ) ) ;
#142 = ORIENTED_EDGE ( 'NONE', *, *, #62, .F. ) ;
#143 = CIRCLE ( 'NONE', #194, 0.5999999999999990896 ) ;
#144 = EDGE_LOOP ( 'NONE', ( #34 ) ) ;
#145 = COORDINATED_UNIVERSAL_TIME_OFFSET ( 1, 0, .AHEAD. ) ;
#146 = FACE_OUTER_BOUND ( 'NONE', #266, .T. ) ;
#147 = ADVANCED_FACE ( 'NONE', ( #61 ), #37, .F. ) ;
#148 = PERSON_AND_ORGANIZATION_ROLE ( 'creator' ) ;
#149 = ORIENTED_EDGE ( 'NONE', *, *, #56, .F. ) ;
#150 = UNCERTAINTY_MEASURE_WITH_UNIT (LENGTH_MEASURE( 1.000000000000000082E-05 ), #69, 'distance_accuracy_value', 'NONE');
#151 = CC_DESIGN_APPROVAL ( #254, ( #113 ) ) ;
#152 = DIRECTION ( 'NONE',  ( 0.0000000000000000000, 1.000000000000000000, 0.0000000000000000000 ) ) ;
#153 = DIRECTION ( 'NONE',  ( 3.491481338843133355E-15, -1.224646799147353207E-16, 1.000000000000000000 ) ) ;
#154 = FACE_BOUND ( 'NONE', #25, .T. ) ;
#155 = CARTESIAN_POINT ( 'NONE',  ( 1.396592535537253342E-14, -4.898587196589412829E-16, 4.000000000000000000 ) ) ;
#156 = CARTESIAN_POINT ( 'NONE',  ( 0.0000000000000000000, 0.0000000000000000000, 0.0000000000000000000 ) ) ;
#157 = DIRECTION ( 'NONE',  ( -4.275831445896958607E-31, -1.000000000000000000, -1.224646799147353207E-16 ) ) ;
#158 = CIRCLE ( 'NONE', #50, 0.5179999999999996829 ) ;
#159 = DIRECTION ( 'NONE',  ( -3.491481338843133355E-15, 1.224646799147353207E-16, -1.000000000000000000 ) ) ;
#160 = VERTEX_POINT ( 'NONE', #277 ) ;
#161 = FACE_OUTER_BOUND ( 'NONE', #121, .T. ) ;
#162 = CLOSED_SHELL ( 'NONE', ( #225, #13, #39, #71, #289, #95, #164 ) ) ;
#163 = AXIS2_PLACEMENT_3D ( 'NONE', #233, #118, #119 ) ;
#164 = ADVANCED_FACE ( 'NONE', ( #203 ), #14, .F. ) ;
#165 = APPROVAL_STATUS ( 'not_yet_approved' ) ;
#166 = DATE_AND_TIME ( #213, #210 ) ;
#167 = DATE_AND_TIME ( #27, #276 ) ;
#168 = EDGE_LOOP ( 'NONE', ( #291 ) ) ;
#169 = CIRCLE ( 'NONE', #185, 0.4474587815757772868 ) ;
#170 = PERSON_AND_ORGANIZATION ( #110, #33 ) ;
#171 = ADVANCED_FACE ( 'NONE', ( #250 ), #86, .T. ) ;
#172 = EDGE_LOOP ( 'NONE', ( #218 ) ) ;
#173 = APPROVAL_STATUS ( 'not_yet_approved' ) ;
#174 = DIRECTION ( 'NONE',  ( 0.0000000000000000000, 1.000000000000000000, 0.0000000000000000000 ) ) ;
#175 = DIRECTION ( 'NONE',  ( 3.491481338843133355E-15, -1.224646799147353207E-16, 1.000000000000000000 ) ) ;
#176 = DIRECTION ( 'NONE',  ( -3.491481338843133355E-15, 1.224646799147353207E-16, -1.000000000000000000 ) ) ;
#177 = FACE_BOUND ( 'NONE', #144, .T. ) ;
#178 = DIRECTION ( 'NONE',  ( -4.304150513271531474E-31, -1.000000000000000000, -1.211510665482262390E-16 ) ) ;
#179 = CARTESIAN_POINT ( 'NONE',  ( 4.786712381607165845E-16, -1.678952693047056000E-17, 0.1370968914642171355 ) ) ;
#180 = EDGE_CURVE ( 'NONE', #255, #255, #143, .T. ) ;
#181 = CLOSED_SHELL ( 'NONE', ( #147, #81, #66, #212, #171 ) ) ;
#182 = AXIS2_PLACEMENT_3D ( 'NONE', #207, #97, #41 ) ;
#183 = APPLICATION_PROTOCOL_DEFINITION ( 'international standard', 'config_control_design', 1994, #127 ) ;
#184 = PERSON_AND_ORGANIZATION ( #110, #33 ) ;
#185 = AXIS2_PLACEMENT_3D ( 'NONE', #179, #275, #2 ) ;
#186 = PERSON_AND_ORGANIZATION_ROLE ( 'creator' ) ;
#187 = CARTESIAN_POINT ( 'NONE',  ( 1.745740669421566283E-15, -6.123233995736764803E-17, 0.4999999999999998890 ) ) ;
#188 = PERSON_AND_ORGANIZATION ( #110, #33 ) ;
#189 = DIRECTION ( 'NONE',  ( -3.491481338843133355E-15, 1.224646799147353207E-16, -1.000000000000000000 ) ) ;
#190 = EDGE_CURVE ( 'NONE', #160, #160, #193, .T. ) ;
#191 = PERSON_AND_ORGANIZATION ( #110, #33 ) ;
#192 = DIRECTION ( 'NONE',  ( -3.491481338843133355E-15, 1.224646799147353207E-16, -1.000000000000000000 ) ) ;
#193 = CIRCLE ( 'NONE', #51, 0.7499999999999991118 ) ;
#194 = AXIS2_PLACEMENT_3D ( 'NONE', #90, #202, #152 ) ;
#195 = ORIENTED_EDGE ( 'NONE', *, *, #190, .T. ) ;
#196 = EDGE_LOOP ( 'NONE', ( #149 ) ) ;
#197 = CC_DESIGN_PERSON_AND_ORGANIZATION_ASSIGNMENT ( #191, #148, ( #139 ) ) ;
#198 = FACE_BOUND ( 'NONE', #77, .T. ) ;
#199 = CC_DESIGN_PERSON_AND_ORGANIZATION_ASSIGNMENT ( #170, #260, ( #113 ) ) ;
#200 = AXIS2_PLACEMENT_3D ( 'NONE', #204, #85, #60 ) ;
#201 = FACE_OUTER_BOUND ( 'NONE', #82, .T. ) ;
#202 = DIRECTION ( 'NONE',  ( -3.491481338843133355E-15, 1.224646799147353207E-16, -1.000000000000000000 ) ) ;
#203 = FACE_OUTER_BOUND ( 'NONE', #99, .T. ) ;
#204 = CARTESIAN_POINT ( 'NONE',  ( -4.247406470425708873E-32, 1.489789643386176385E-33, -1.216505562602560891E-17 ) ) ;
#205 = VERTEX_POINT ( 'NONE', #231 ) ;
#206 = DIRECTION ( 'NONE',  ( -3.491481338843133355E-15, 1.224646799147353207E-16, -1.000000000000000000 ) ) ;
#207 = CARTESIAN_POINT ( 'NONE',  ( 0.0000000000000000000, 0.0000000000000000000, 0.0000000000000000000 ) ) ;
#208 = APPROVAL ( #165, 'UNSPECIFIED' ) ;
#209 = ORIENTED_EDGE ( 'NONE', *, *, #190, .F. ) ;
#210 = LOCAL_TIME ( 13, 52, 45.00000000000000000, #236 ) ;
#211 = EDGE_LOOP ( 'NONE', ( #52 ) ) ;
#212 = ADVANCED_FACE ( 'NONE', ( #130, #268 ), #226, .T. ) ;
#213 = CALENDAR_DATE ( 2021, 17, 12 ) ;
#214 = EDGE_LOOP ( 'NONE', ( #55 ) ) ;
#215 = AXIS2_PLACEMENT_3D ( 'NONE', #12, #107, #35 ) ;
#216 = EDGE_CURVE ( 'NONE', #117, #117, #300, .T. ) ;
#217 = SECURITY_CLASSIFICATION_LEVEL ( 'unclassified' ) ;
#218 = ORIENTED_EDGE ( 'NONE', *, *, #251, .T. ) ;
#219 = DESIGN_CONTEXT ( 'detailed design', #106, 'design' ) ;
#220 = DIRECTION ( 'NONE',  ( 0.0000000000000000000, 1.000000000000000000, 0.0000000000000000000 ) ) ;
#221 = DIRECTION ( 'NONE',  ( -7.436022951302080208E-31, -1.000000000000000000, -2.093054387037656522E-16 ) ) ;
#222 = CONICAL_SURFACE ( 'NONE', #93, 0.5179999999999992388, 0.1919862177193696895 ) ;
#223 = APPROVAL_PERSON_ORGANIZATION ( #24, #208, #74 ) ;
#224 = CARTESIAN_POINT ( 'NONE',  ( -2.123703235212854436E-32, 7.448948216930881924E-34, -6.082527813012804453E-18 ) ) ;
#225 = ADVANCED_FACE ( 'NONE', ( #278 ), #91, .F. ) ;
#226 = CYLINDRICAL_SURFACE ( 'NONE', #272, 0.5179999999999994609 ) ;
#227 = DIRECTION ( 'NONE',  ( 0.0000000000000000000, -1.000000000000000000, 0.0000000000000000000 ) ) ;
#228 = CIRCLE ( 'NONE', #200, 0.2099999999999999922 ) ;
#229 = CARTESIAN_POINT ( 'NONE',  ( 1.745740669421566678E-14, -6.123233995736766282E-16, 5.000000000000000000 ) ) ;
#230 =( NAMED_UNIT ( * ) PLANE_ANGLE_UNIT ( ) SI_UNIT ( $, .RADIAN. ) );
#231 = CARTESIAN_POINT ( 'NONE',  ( 1.396592535537253342E-14, 0.5179999999999991278, 4.000000000000000000 ) ) ;
#232 = AXIS2_PLACEMENT_3D ( 'NONE', #292, #129, #220 ) ;
#233 = CARTESIAN_POINT ( 'NONE',  ( 0.0000000000000000000, 0.0000000000000000000, 0.0000000000000000000 ) ) ;
#234 = PERSON_AND_ORGANIZATION ( #110, #33 ) ;
#235 = ORIENTED_EDGE ( 'NONE', *, *, #216, .T. ) ;
#236 = COORDINATED_UNIVERSAL_TIME_OFFSET ( 1, 0, .AHEAD. ) ;
#237 = ORIENTED_EDGE ( 'NONE', *, *, #3, .F. ) ;
#238 = APPROVAL_ROLE ( '' ) ;
#239 = EDGE_LOOP ( 'NONE', ( #284 ) ) ;
#240 = DATE_AND_TIME ( #281, #84 ) ;
#241 = FACE_OUTER_BOUND ( 'NONE', #9, .T. ) ;
#242 = MANIFOLD_SOLID_BREP ( 'Corps-Déplacer/Copier1[2]', #181 ) ;
#243 = PERSON_AND_ORGANIZATION ( #110, #33 ) ;
#244 = TOROIDAL_SURFACE ( 'NONE', #293, 2.517999999999999794, 2.000000000000000444 ) ;
#245 = CIRCLE ( 'NONE', #89, 0.5179999999999997939 ) ;
#246 = FACE_OUTER_BOUND ( 'NONE', #265, .T. ) ;
#247 = DIRECTION ( 'NONE',  ( -3.491481338843133355E-15, 1.224646799147353207E-16, -1.000000000000000000 ) ) ;
#248 = DIRECTION ( 'NONE',  ( -3.491481338843133355E-15, 1.224646799147353207E-16, -1.000000000000000000 ) ) ;
#249 = DIRECTION ( 'NONE',  ( 3.491481338843133355E-15, -1.224646799147353207E-16, 1.000000000000000000 ) ) ;
#250 = FACE_OUTER_BOUND ( 'NONE', #26, .T. ) ;
#251 = EDGE_CURVE ( 'NONE', #23, #23, #169, .T. ) ;
#252 = DIRECTION ( 'NONE',  ( 0.0000000000000000000, 1.000000000000000000, 0.0000000000000000000 ) ) ;
#253 = LOCAL_TIME ( 13, 52, 45.00000000000000000, #30 ) ;
#254 = APPROVAL ( #6, 'UNSPECIFIED' ) ;
#255 = VERTEX_POINT ( 'NONE', #132 ) ;
#256 = CC_DESIGN_APPROVAL ( #29, ( #139 ) ) ;
#257 = CYLINDRICAL_SURFACE ( 'NONE', #182, 0.7499999999999976685 ) ;
#258 = APPROVAL_DATE_TIME ( #166, #254 ) ;
#259 = CC_DESIGN_DATE_AND_TIME_ASSIGNMENT ( #98, #8, ( #139 ) ) ;
#260 = PERSON_AND_ORGANIZATION_ROLE ( 'design_supplier' ) ;
#261 = FACE_OUTER_BOUND ( 'NONE', #239, .T. ) ;
#262 = COORDINATED_UNIVERSAL_TIME_OFFSET ( 1, 0, .AHEAD. ) ;
#263 = EDGE_LOOP ( 'NONE', ( #195 ) ) ;
#264 = DIRECTION ( 'NONE',  ( 4.275831445896958607E-31, 1.000000000000000000, 1.224646799147353207E-16 ) ) ;
#265 = EDGE_LOOP ( 'NONE', ( #235 ) ) ;
#266 = EDGE_LOOP ( 'NONE', ( #54 ) ) ;
#267 = AXIS2_PLACEMENT_3D ( 'NONE', #299, #112, #178 ) ;
#268 = FACE_OUTER_BOUND ( 'NONE', #168, .T. ) ;
#269 = EDGE_CURVE ( 'NONE', #92, #92, #245, .T. ) ;
#270 = FACE_OUTER_BOUND ( 'NONE', #141, .T. ) ;
#271 = CARTESIAN_POINT ( 'NONE',  ( 1.926473042644088056E-14, -6.757157826023087839E-16, 5.517638090205016610 ) ) ;
#272 = AXIS2_PLACEMENT_3D ( 'NONE', #156, #16, #109 ) ;
#273 = DIRECTION ( 'NONE',  ( -4.275831445896958607E-31, -1.000000000000000000, -1.224646799147353207E-16 ) ) ;
#274 = CARTESIAN_POINT ( 'NONE',  ( 1.745740669421566678E-15, 0.5179999999999991278, 0.5000000000000000000 ) ) ;
#275 = DIRECTION ( 'NONE',  ( -3.491481338843133355E-15, 1.224646799147353207E-16, -1.000000000000000000 ) ) ;
#276 = LOCAL_TIME ( 13, 52, 45.00000000000000000, #262 ) ;
#277 = CARTESIAN_POINT ( 'NONE',  ( 1.042207179644675275E-13, 0.7499999999999954481, 29.84999999999999787 ) ) ;
#278 = FACE_OUTER_BOUND ( 'NONE', #214, .T. ) ;
#279 = AXIS2_PLACEMENT_3D ( 'NONE', #271, #248, #36 ) ;
#280 = APPROVAL_PERSON_ORGANIZATION ( #73, #254, #125 ) ;
#281 = CALENDAR_DATE ( 2021, 17, 12 ) ;
#282 = DIRECTION ( 'NONE',  ( 7.436022951302080208E-31, 1.000000000000000000, 2.093054387037656522E-16 ) ) ;
#283 = DATE_TIME_ROLE ( 'classification_date' ) ;
#284 = ORIENTED_EDGE ( 'NONE', *, *, #269, .T. ) ;
#285 = CIRCLE ( 'NONE', #31, 0.5179999999999992388 ) ;
#286 = ORIENTED_EDGE ( 'NONE', *, *, #180, .F. ) ;
#287 = CC_DESIGN_SECURITY_CLASSIFICATION ( #5, ( #113 ) ) ;
#288 = PERSON_AND_ORGANIZATION_ROLE ( 'classification_officer' ) ;
#289 = ADVANCED_FACE ( 'NONE', ( #161, #133 ), #257, .T. ) ;
#290 = ORIENTED_EDGE ( 'NONE', *, *, #180, .T. ) ;
#291 = ORIENTED_EDGE ( 'NONE', *, *, #62, .T. ) ;
#292 = CARTESIAN_POINT ( 'NONE',  ( 1.047444401652940007E-13, -3.673940397442059178E-15, 30.00000000000000000 ) ) ;
#293 = AXIS2_PLACEMENT_3D ( 'NONE', #87, #126, #15 ) ;
#294 = CC_DESIGN_APPROVAL ( #208, ( #5 ) ) ;
#295 = PRODUCT ( '992518', '992518', '', ( #78 ) ) ;
#296 = FACE_BOUND ( 'NONE', #196, .T. ) ;
#297 = ADVANCED_BREP_SHAPE_REPRESENTATION ( '992518', ( #137, #242, #163 ), #68 ) ;
#298 = CARTESIAN_POINT ( 'NONE',  ( 1.042207179644675275E-13, -3.655570695454848748E-15, 29.84999999999999787 ) ) ;
#299 = CARTESIAN_POINT ( 'NONE',  ( 4.786712381607165845E-16, -1.678952693047056000E-17, 0.1370968914642171355 ) ) ;
#300 = CIRCLE ( 'NONE', #115, 0.7499999999999961142 ) ;
#301 = DIRECTION ( 'NONE',  ( 3.491481338843133355E-15, -1.224646799147353207E-16, 1.000000000000000000 ) ) ;
#302 = CARTESIAN_POINT ( 'NONE',  ( 1.396592535537253342E-14, 3.884377837094200968E-33, 4.000000000000000000 ) ) ;
#303 = CONICAL_SURFACE ( 'NONE', #267, 0.4474587815757772868, 1.047197551196592746 ) ;
ENDSEC;
END-ISO-10303-21;
