ISO-10303-21;
HEADER;
FILE_DESCRIPTION (( 'STEP AP203' ),
    '1' );
FILE_NAME ('992517.step',
    '2021-12-17T12:38:09',
    ( '' ),
    ( '' ),
    'SwSTEP 2.0',
    'SolidWorks 2019',
    '' );
FILE_SCHEMA (( 'CONFIG_CONTROL_DESIGN' ));
ENDSEC;

DATA;
#1 = CONICAL_SURFACE ( 'NONE', #44, 0.7499999999999971134, 0.2617993877991423579 ) ;
#2 = LOCAL_TIME ( 13, 38, 9.000000000000000000, #80 ) ;
#3 = FACE_OUTER_BOUND ( 'NONE', #205, .T. ) ;
#4 = PERSON_AND_ORGANIZATION ( #285, #195 ) ;
#5 = FACE_OUTER_BOUND ( 'NONE', #40, .T. ) ;
#6 = PERSON_AND_ORGANIZATION_ROLE ( 'creator' ) ;
#7 = DIRECTION ( 'NONE',  ( -3.491481338843133355E-15, 1.224646799147353207E-16, -1.000000000000000000 ) ) ;
#8 = MECHANICAL_CONTEXT ( 'NONE', #183, 'mechanical' ) ;
#9 = EDGE_CURVE ( 'NONE', #153, #153, #50, .T. ) ;
#10 = CC_DESIGN_PERSON_AND_ORGANIZATION_ASSIGNMENT ( #31, #6, ( #65 ) ) ;
#11 = CC_DESIGN_APPROVAL ( #235, ( #65 ) ) ;
#12 = PLANE ( 'NONE',  #280 ) ;
#13 = CARTESIAN_POINT ( 'NONE',  ( 4.326206186437940333E-16, 0.4046140331774484844, 0.1239074698268725350 ) ) ;
#14 = ORIENTED_EDGE ( 'NONE', *, *, #126, .F. ) ;
#15 = CC_DESIGN_PERSON_AND_ORGANIZATION_ASSIGNMENT ( #166, #53, ( #74 ) ) ;
#16 = AXIS2_PLACEMENT_3D ( 'NONE', #187, #189, #229 ) ;
#17 = ORIENTED_EDGE ( 'NONE', *, *, #126, .T. ) ;
#18 = DIRECTION ( 'NONE',  ( 0.0000000000000000000, 1.000000000000000000, 0.0000000000000000000 ) ) ;
#19 = DIRECTION ( 'NONE',  ( -4.115234923904353557E-31, -1.000000000000000000, -1.158335654364856134E-16 ) ) ;
#20 = FACE_OUTER_BOUND ( 'NONE', #254, .T. ) ;
#21 = DIRECTION ( 'NONE',  ( 0.0000000000000000000, 1.000000000000000000, 0.0000000000000000000 ) ) ;
#22 = APPROVAL_PERSON_ORGANIZATION ( #51, #258, #95 ) ;
#23 = CARTESIAN_POINT ( 'NONE',  ( -3.392240181246318662E-32, 1.189837686853805240E-33, -9.715762027730907915E-18 ) ) ;
#24 = CARTESIAN_POINT ( 'NONE',  ( 1.256933281983528008E-14, -4.408728476930471151E-16, 3.600000000000000089 ) ) ;
#25 = APPROVAL_DATE_TIME ( #237, #258 ) ;
#26 = ADVANCED_FACE ( 'NONE', ( #91, #188 ), #106, .T. ) ;
#27 =( NAMED_UNIT ( * ) PLANE_ANGLE_UNIT ( ) SI_UNIT ( $, .RADIAN. ) );
#28 = APPLICATION_PROTOCOL_DEFINITION ( 'international standard', 'config_control_design', 1994, #183 ) ;
#29 = AXIS2_PLACEMENT_3D ( 'NONE', #198, #215, #264 ) ;
#30 = DIRECTION ( 'NONE',  ( 0.0000000000000000000, 1.000000000000000000, 0.0000000000000000000 ) ) ;
#31 = PERSON_AND_ORGANIZATION ( #285, #195 ) ;
#32 = CARTESIAN_POINT ( 'NONE',  ( 1.256933281983528008E-14, 0.4679999999999995830, 3.600000000000000089 ) ) ;
#33 = ADVANCED_FACE ( 'NONE', ( #192, #90 ), #208, .T. ) ;
#34 = FACE_OUTER_BOUND ( 'NONE', #203, .T. ) ;
#35 = AXIS2_PLACEMENT_3D ( 'NONE', #253, #136, #231 ) ;
#36 = CARTESIAN_POINT ( 'NONE',  ( 2.030555928343910724E-14, 0.7499999999999963363, 5.815743322909222357 ) ) ;
#37 = PRODUCT ( '992517', '992517', '', ( #8 ) ) ;
#38 = ORIENTED_EDGE ( 'NONE', *, *, #9, .T. ) ;
#39 = EDGE_LOOP ( 'NONE', ( #110 ) ) ;
#40 = EDGE_LOOP ( 'NONE', ( #38 ) ) ;
#41 = ADVANCED_FACE ( 'NONE', ( #72, #139 ), #64, .T. ) ;
#42 = PRODUCT_RELATED_PRODUCT_CATEGORY ( 'detail', '', ( #37 ) ) ;
#43 = ORIENTED_EDGE ( 'NONE', *, *, #85, .F. ) ;
#44 = AXIS2_PLACEMENT_3D ( 'NONE', #117, #199, #272 ) ;
#45 = DIRECTION ( 'NONE',  ( -4.275831445896958607E-31, -1.000000000000000000, -1.224646799147353207E-16 ) ) ;
#46 = PRODUCT_DEFINITION_FORMATION_WITH_SPECIFIED_SOURCE ( 'ANY', '', #37, .NOT_KNOWN. ) ;
#47 = EDGE_LOOP ( 'NONE', ( #14 ) ) ;
#48 = CARTESIAN_POINT ( 'NONE',  ( 1.571166602479410010E-14, -5.510910596163088569E-16, 4.500000000000000000 ) ) ;
#49 = ORIENTED_EDGE ( 'NONE', *, *, #216, .F. ) ;
#50 = CIRCLE ( 'NONE', #295, 0.7499999999999971134 ) ;
#51 = PERSON_AND_ORGANIZATION ( #285, #195 ) ;
#52 = CARTESIAN_POINT ( 'NONE',  ( 1.751898975701935175E-14, -6.144834426449425904E-16, 5.017638090205028156 ) ) ;
#53 = PERSON_AND_ORGANIZATION_ROLE ( 'classification_officer' ) ;
#54 = PERSON_AND_ORGANIZATION_ROLE ( 'creator' ) ;
#55 = DIRECTION ( 'NONE',  ( 4.115234923904353557E-31, 1.000000000000000000, 1.158335654364856134E-16 ) ) ;
#56 = DATE_AND_TIME ( #76, #181 ) ;
#57 = ADVANCED_BREP_SHAPE_REPRESENTATION ( '992517', ( #266, #271, #210 ), #129 ) ;
#58 = ADVANCED_FACE ( 'NONE', ( #233, #164 ), #255, .T. ) ;
#59 = CARTESIAN_POINT ( 'NONE',  ( 1.256933281983528008E-14, 0.4679999999999995830, 3.600000000000000089 ) ) ;
#60 = PERSON_AND_ORGANIZATION ( #285, #195 ) ;
#61 = FACE_OUTER_BOUND ( 'NONE', #39, .T. ) ;
#62 = CARTESIAN_POINT ( 'NONE',  ( 1.571166602479410010E-15, 0.4679999999999995830, 0.4500000000000000111 ) ) ;
#63 = AXIS2_PLACEMENT_3D ( 'NONE', #52, #143, #236 ) ;
#64 = CONICAL_SURFACE ( 'NONE', #81, 0.5999999999999986455, 0.7853981633974450594 ) ;
#65 = PRODUCT_DEFINITION ( 'UNKNOWN', '', #46, #146 ) ;
#66 = LOCAL_TIME ( 13, 38, 9.000000000000000000, #100 ) ;
#67 = EDGE_LOOP ( 'NONE', ( #226 ) ) ;
#68 = DIRECTION ( 'NONE',  ( -3.491481338843133355E-15, 1.224646799147353207E-16, -1.000000000000000000 ) ) ;
#69 = ORIENTED_EDGE ( 'NONE', *, *, #9, .F. ) ;
#70 = FACE_BOUND ( 'NONE', #128, .T. ) ;
#71 = ADVANCED_FACE ( 'NONE', ( #193 ), #281, .T. ) ;
#72 = FACE_OUTER_BOUND ( 'NONE', #67, .T. ) ;
#73 = CLOSED_SHELL ( 'NONE', ( #247, #151, #26, #33, #71 ) ) ;
#74 = SECURITY_CLASSIFICATION ( '', '', #114 ) ;
#75 = CARTESIAN_POINT ( 'NONE',  ( 1.042207179644675275E-13, -3.655570695454848748E-15, 29.84999999999999787 ) ) ;
#76 = CALENDAR_DATE ( 2021, 17, 12 ) ;
#77 = CARTESIAN_POINT ( 'NONE',  ( 1.047444401652940007E-13, 0.5999999999999949818, 30.00000000000000000 ) ) ;
#78 = EDGE_CURVE ( 'NONE', #201, #201, #118, .T. ) ;
#79 = DIRECTION ( 'NONE',  ( -4.275831445896958607E-31, -1.000000000000000000, -1.224646799147353207E-16 ) ) ;
#80 = COORDINATED_UNIVERSAL_TIME_OFFSET ( 1, 0, .AHEAD. ) ;
#81 = AXIS2_PLACEMENT_3D ( 'NONE', #165, #301, #21 ) ;
#82 = LOCAL_TIME ( 13, 38, 9.000000000000000000, #282 ) ;
#83 = CARTESIAN_POINT ( 'NONE',  ( 1.256933281983528008E-14, -4.408728476930471151E-16, 3.600000000000000089 ) ) ;
#84 = DIRECTION ( 'NONE',  ( -4.275831445896958607E-31, -1.000000000000000000, -1.224646799147353207E-16 ) ) ;
#85 = EDGE_CURVE ( 'NONE', #284, #284, #180, .T. ) ;
#86 = CIRCLE ( 'NONE', #140, 0.4679999999999999716 ) ;
#87 = EDGE_CURVE ( 'NONE', #268, #268, #154, .T. ) ;
#88 = ORIENTED_EDGE ( 'NONE', *, *, #138, .T. ) ;
#89 = APPROVAL_PERSON_ORGANIZATION ( #60, #235, #145 ) ;
#90 = FACE_OUTER_BOUND ( 'NONE', #157, .T. ) ;
#91 = FACE_BOUND ( 'NONE', #250, .T. ) ;
#92 = DIRECTION ( 'NONE',  ( 0.0000000000000000000, 1.000000000000000000, 0.0000000000000000000 ) ) ;
#93 = DIRECTION ( 'NONE',  ( -3.491481338843133355E-15, 1.224646799147353207E-16, -1.000000000000000000 ) ) ;
#94 = APPROVAL ( #240, 'UNSPECIFIED' ) ;
#95 = APPROVAL_ROLE ( '' ) ;
#96 = APPROVAL_DATE_TIME ( #171, #235 ) ;
#97 = CARTESIAN_POINT ( 'NONE',  ( 1.047444401652940007E-13, 4.499279347985507822E-33, 30.00000000000000000 ) ) ;
#98 = APPROVAL_ROLE ( '' ) ;
#99 = DIRECTION ( 'NONE',  ( -3.491481338843133355E-15, 1.224646799147353207E-16, -1.000000000000000000 ) ) ;
#100 = COORDINATED_UNIVERSAL_TIME_OFFSET ( 1, 0, .AHEAD. ) ;
#101 = PLANE ( 'NONE',  #219 ) ;
#102 = PERSON_AND_ORGANIZATION_ROLE ( 'design_owner' ) ;
#103 = CIRCLE ( 'NONE', #111, 0.5999999999999986455 ) ;
#104 = DIRECTION ( 'NONE',  ( 3.491481338843133355E-15, -1.224646799147353207E-16, 1.000000000000000000 ) ) ;
#105 = ORIENTED_EDGE ( 'NONE', *, *, #225, .F. ) ;
#106 = CONICAL_SURFACE ( 'NONE', #190, 0.4679999999999996385, 0.1919862177193697728 ) ;
#107 = AXIS2_PLACEMENT_3D ( 'NONE', #172, #99, #55 ) ;
#108 = APPROVAL_PERSON_ORGANIZATION ( #4, #94, #98 ) ;
#109 = EDGE_LOOP ( 'NONE', ( #246 ) ) ;
#110 = ORIENTED_EDGE ( 'NONE', *, *, #131, .T. ) ;
#111 = AXIS2_PLACEMENT_3D ( 'NONE', #211, #115, #213 ) ;
#112 = CC_DESIGN_PERSON_AND_ORGANIZATION_ASSIGNMENT ( #265, #102, ( #37 ) ) ;
#113 = DIRECTION ( 'NONE',  ( 0.0000000000000000000, 1.000000000000000000, 0.0000000000000000000 ) ) ;
#114 = SECURITY_CLASSIFICATION_LEVEL ( 'unclassified' ) ;
#115 = DIRECTION ( 'NONE',  ( -3.491481338843133355E-15, 1.224646799147353207E-16, -1.000000000000000000 ) ) ;
#116 = SHAPE_DEFINITION_REPRESENTATION ( #292, #57 ) ;
#117 = CARTESIAN_POINT ( 'NONE',  ( 2.030555928343910724E-14, -7.122231445063371468E-16, 5.815743322909222357 ) ) ;
#118 = CIRCLE ( 'NONE', #232, 0.1900000000000000022 ) ;
#119 = DATE_TIME_ROLE ( 'creation_date' ) ;
#120 = DIRECTION ( 'NONE',  ( 3.491481338843133355E-15, -1.224646799147353207E-16, 1.000000000000000000 ) ) ;
#121 = CARTESIAN_POINT ( 'NONE',  ( 0.0000000000000000000, 0.0000000000000000000, 0.0000000000000000000 ) ) ;
#122 = VERTEX_POINT ( 'NONE', #13 ) ;
#123 = COORDINATED_UNIVERSAL_TIME_OFFSET ( 1, 0, .AHEAD. ) ;
#124 = DIRECTION ( 'NONE',  ( -3.491481338843133355E-15, 1.224646799147353207E-16, -1.000000000000000000 ) ) ;
#125 = AXIS2_PLACEMENT_3D ( 'NONE', #270, #124, #243 ) ;
#126 = EDGE_CURVE ( 'NONE', #214, #214, #103, .T. ) ;
#127 = CARTESIAN_POINT ( 'NONE',  ( 1.751898975701935175E-14, 0.5361483474218602385, 5.017638090205028156 ) ) ;
#128 = EDGE_LOOP ( 'NONE', ( #43 ) ) ;
#129 =( GEOMETRIC_REPRESENTATION_CONTEXT ( 3 ) GLOBAL_UNCERTAINTY_ASSIGNED_CONTEXT ( ( #263 ) ) GLOBAL_UNIT_ASSIGNED_CONTEXT ( ( #218, #27, #173 ) ) REPRESENTATION_CONTEXT ( 'NONE', 'WORKASPACE' ) );
#130 = ORIENTED_EDGE ( 'NONE', *, *, #290, .T. ) ;
#131 = EDGE_CURVE ( 'NONE', #222, #222, #159, .T. ) ;
#132 = AXIS2_PLACEMENT_3D ( 'NONE', #48, #303, #283 ) ;
#133 = EDGE_LOOP ( 'NONE', ( #105 ) ) ;
#134 = DIRECTION ( 'NONE',  ( 4.275831445896958607E-31, 1.000000000000000000, 1.224646799147353207E-16 ) ) ;
#135 = CARTESIAN_POINT ( 'NONE',  ( 2.030555928343910724E-14, -7.122231445063371468E-16, 5.815743322909222357 ) ) ;
#136 = DIRECTION ( 'NONE',  ( 3.491481338843133355E-15, -1.224646799147353207E-16, 1.000000000000000000 ) ) ;
#137 = DIRECTION ( 'NONE',  ( -3.491481338843133355E-15, 1.224646799147353207E-16, -1.000000000000000000 ) ) ;
#138 = EDGE_CURVE ( 'NONE', #202, #202, #259, .T. ) ;
#139 = FACE_BOUND ( 'NONE', #156, .T. ) ;
#140 = AXIS2_PLACEMENT_3D ( 'NONE', #83, #150, #30 ) ;
#141 = DIRECTION ( 'NONE',  ( 3.491481338843133355E-15, -1.224646799147353207E-16, 1.000000000000000000 ) ) ;
#142 = APPROVAL_STATUS ( 'not_yet_approved' ) ;
#143 = DIRECTION ( 'NONE',  ( -3.491481338843133355E-15, 1.224646799147353207E-16, -1.000000000000000000 ) ) ;
#144 = CALENDAR_DATE ( 2021, 17, 12 ) ;
#145 = APPROVAL_ROLE ( '' ) ;
#146 = DESIGN_CONTEXT ( 'detailed design', #267, 'design' ) ;
#147 = PLANE ( 'NONE',  #174 ) ;
#148 = DIRECTION ( 'NONE',  ( 0.0000000000000000000, 0.0000000000000000000, 1.000000000000000000 ) ) ;
#149 = CARTESIAN_POINT ( 'NONE',  ( 1.571166602479410010E-14, 0.4679999999999995830, 4.500000000000000000 ) ) ;
#150 = DIRECTION ( 'NONE',  ( -3.491481338843133355E-15, 1.224646799147353207E-16, -1.000000000000000000 ) ) ;
#151 = ADVANCED_FACE ( 'NONE', ( #297, #161 ), #184, .T. ) ;
#152 = CC_DESIGN_DATE_AND_TIME_ASSIGNMENT ( #56, #119, ( #65 ) ) ;
#153 = VERTEX_POINT ( 'NONE', #36 ) ;
#154 = CIRCLE ( 'NONE', #224, 0.4679999999999999716 ) ;
#155 = EDGE_LOOP ( 'NONE', ( #88 ) ) ;
#156 = EDGE_LOOP ( 'NONE', ( #17 ) ) ;
#157 = EDGE_LOOP ( 'NONE', ( #158 ) ) ;
#158 = ORIENTED_EDGE ( 'NONE', *, *, #87, .T. ) ;
#159 = CIRCLE ( 'NONE', #132, 0.4680000000000000826 ) ;
#160 = ORIENTED_EDGE ( 'NONE', *, *, #290, .F. ) ;
#161 = FACE_OUTER_BOUND ( 'NONE', #228, .T. ) ;
#162 = ADVANCED_FACE ( 'NONE', ( #20, #209 ), #227, .F. ) ;
#163 = ORIENTED_EDGE ( 'NONE', *, *, #87, .F. ) ;
#164 = FACE_OUTER_BOUND ( 'NONE', #155, .T. ) ;
#165 = CARTESIAN_POINT ( 'NONE',  ( 1.047444401652940007E-13, -3.673940397442059178E-15, 30.00000000000000000 ) ) ;
#166 = PERSON_AND_ORGANIZATION ( #285, #195 ) ;
#167 = AXIS2_PLACEMENT_3D ( 'NONE', #256, #141, #45 ) ;
#168 = DIRECTION ( 'NONE',  ( 4.275831445896958607E-31, 1.000000000000000000, 1.224646799147353207E-16 ) ) ;
#169 = COORDINATED_UNIVERSAL_TIME_OFFSET ( 1, 0, .AHEAD. ) ;
#170 = DIRECTION ( 'NONE',  ( -3.491481338843133355E-15, 1.224646799147353207E-16, -1.000000000000000000 ) ) ;
#171 = DATE_AND_TIME ( #176, #2 ) ;
#172 = CARTESIAN_POINT ( 'NONE',  ( 1.571166602479409813E-15, -5.510910596163088939E-17, 0.4499999999999999556 ) ) ;
#173 =( NAMED_UNIT ( * ) SI_UNIT ( $, .STERADIAN. ) SOLID_ANGLE_UNIT ( ) );
#174 = AXIS2_PLACEMENT_3D ( 'NONE', #220, #120, #84 ) ;
#175 = CARTESIAN_POINT ( 'NONE',  ( 4.731839565957903391E-32, 0.1900000000000000022, 1.355252715606880543E-17 ) ) ;
#176 = CALENDAR_DATE ( 2021, 17, 12 ) ;
#177 = ADVANCED_FACE ( 'NONE', ( #70, #5 ), #1, .T. ) ;
#178 = CARTESIAN_POINT ( 'NONE',  ( 1.571166602479409694E-14, -4.336808689942017736E-16, 4.499999999999999112 ) ) ;
#179 = VERTEX_POINT ( 'NONE', #62 ) ;
#180 = CIRCLE ( 'NONE', #63, 0.5361483474218609047 ) ;
#181 = LOCAL_TIME ( 13, 38, 9.000000000000000000, #169 ) ;
#182 = ORIENTED_EDGE ( 'NONE', *, *, #78, .T. ) ;
#183 = APPLICATION_CONTEXT ( 'configuration controlled 3d designs of mechanical parts and assemblies' ) ;
#184 = CONICAL_SURFACE ( 'NONE', #35, 0.4046140331774484844, 1.047197551196593190 ) ;
#185 = ADVANCED_FACE ( 'NONE', ( #293, #61 ), #239, .T. ) ;
#186 = EDGE_LOOP ( 'NONE', ( #49 ) ) ;
#187 = CARTESIAN_POINT ( 'NONE',  ( 0.0000000000000000000, 0.0000000000000000000, 0.0000000000000000000 ) ) ;
#188 = FACE_OUTER_BOUND ( 'NONE', #109, .T. ) ;
#189 = DIRECTION ( 'NONE',  ( -3.491481338843133355E-15, 1.224646799147353207E-16, -1.000000000000000000 ) ) ;
#190 = AXIS2_PLACEMENT_3D ( 'NONE', #278, #230, #19 ) ;
#191 = CC_DESIGN_APPROVAL ( #258, ( #74 ) ) ;
#192 = FACE_OUTER_BOUND ( 'NONE', #186, .T. ) ;
#193 = FACE_OUTER_BOUND ( 'NONE', #206, .T. ) ;
#194 = CLOSED_SHELL ( 'NONE', ( #299, #185, #162, #177, #58, #41, #273 ) ) ;
#195 = ORGANIZATION ( 'UNSPECIFIED', 'UNSPECIFIED', '' ) ;
#196 = DIRECTION ( 'NONE',  ( 4.275831445896958607E-31, 1.000000000000000000, 1.224646799147353207E-16 ) ) ;
#197 = DATE_AND_TIME ( #234, #66 ) ;
#198 = CARTESIAN_POINT ( 'NONE',  ( 4.326206186437938361E-16, -1.517428863139266434E-17, 0.1239074698268724795 ) ) ;
#199 = DIRECTION ( 'NONE',  ( 3.491481338843133355E-15, -1.224646799147353207E-16, 1.000000000000000000 ) ) ;
#200 = CALENDAR_DATE ( 2021, 17, 12 ) ;
#201 = VERTEX_POINT ( 'NONE', #175 ) ;
#202 = VERTEX_POINT ( 'NONE', #291 ) ;
#203 = EDGE_LOOP ( 'NONE', ( #182 ) ) ;
#204 = CC_DESIGN_SECURITY_CLASSIFICATION ( #74, ( #46 ) ) ;
#205 = EDGE_LOOP ( 'NONE', ( #249 ) ) ;
#206 = EDGE_LOOP ( 'NONE', ( #163 ) ) ;
#207 = ORIENTED_EDGE ( 'NONE', *, *, #78, .F. ) ;
#208 = CYLINDRICAL_SURFACE ( 'NONE', #16, 0.4679999999999997495 ) ;
#209 = FACE_OUTER_BOUND ( 'NONE', #277, .T. ) ;
#210 = AXIS2_PLACEMENT_3D ( 'NONE', #121, #148, #262 ) ;
#211 = CARTESIAN_POINT ( 'NONE',  ( 1.047444401652940007E-13, -3.673940397442059178E-15, 30.00000000000000000 ) ) ;
#212 = PERSON_AND_ORGANIZATION ( #285, #195 ) ;
#213 = DIRECTION ( 'NONE',  ( 0.0000000000000000000, 1.000000000000000000, 0.0000000000000000000 ) ) ;
#214 = VERTEX_POINT ( 'NONE', #77 ) ;
#215 = DIRECTION ( 'NONE',  ( -3.491481338843133355E-15, 1.224646799147353207E-16, -1.000000000000000000 ) ) ;
#216 = EDGE_CURVE ( 'NONE', #179, #179, #294, .T. ) ;
#217 = APPROVAL_STATUS ( 'not_yet_approved' ) ;
#218 =( LENGTH_UNIT ( ) NAMED_UNIT ( * ) SI_UNIT ( .MILLI., .METRE. ) );
#219 = AXIS2_PLACEMENT_3D ( 'NONE', #97, #261, #196 ) ;
#220 = CARTESIAN_POINT ( 'NONE',  ( -1.696120090623159331E-32, 5.949188434269026198E-34, -4.857881013865453957E-18 ) ) ;
#221 = LOCAL_TIME ( 13, 38, 9.000000000000000000, #123 ) ;
#222 = VERTEX_POINT ( 'NONE', #149 ) ;
#223 = EDGE_LOOP ( 'NONE', ( #69 ) ) ;
#224 = AXIS2_PLACEMENT_3D ( 'NONE', #24, #68, #113 ) ;
#225 = EDGE_CURVE ( 'NONE', #241, #241, #86, .T. ) ;
#226 = ORIENTED_EDGE ( 'NONE', *, *, #138, .F. ) ;
#227 = TOROIDAL_SURFACE ( 'NONE', #276, 2.467999999999999972, 2.000000000000000000 ) ;
#228 = EDGE_LOOP ( 'NONE', ( #130 ) ) ;
#229 = DIRECTION ( 'NONE',  ( 4.275831445896959482E-31, 1.000000000000000000, 1.224646799147353207E-16 ) ) ;
#230 = DIRECTION ( 'NONE',  ( 3.491481338843133355E-15, -1.224646799147353207E-16, 1.000000000000000000 ) ) ;
#231 = DIRECTION ( 'NONE',  ( -4.759918802773198521E-31, -1.000000000000000000, -1.339798034155199644E-16 ) ) ;
#232 = AXIS2_PLACEMENT_3D ( 'NONE', #23, #279, #134 ) ;
#233 = FACE_OUTER_BOUND ( 'NONE', #223, .T. ) ;
#234 = CALENDAR_DATE ( 2021, 17, 12 ) ;
#235 = APPROVAL ( #217, 'UNSPECIFIED' ) ;
#236 = DIRECTION ( 'NONE',  ( 0.0000000000000000000, 1.000000000000000000, 0.0000000000000000000 ) ) ;
#237 = DATE_AND_TIME ( #144, #82 ) ;
#238 = CC_DESIGN_APPROVAL ( #94, ( #46 ) ) ;
#239 = CYLINDRICAL_SURFACE ( 'NONE', #125, 0.4680000000000000271 ) ;
#240 = APPROVAL_STATUS ( 'not_yet_approved' ) ;
#241 = VERTEX_POINT ( 'NONE', #32 ) ;
#242 = PERSON_AND_ORGANIZATION_ROLE ( 'design_supplier' ) ;
#243 = DIRECTION ( 'NONE',  ( 4.275831445896958607E-31, 1.000000000000000000, 1.224646799147353207E-16 ) ) ;
#244 = DIRECTION ( 'NONE',  ( 4.394700265965264860E-31, 1.000000000000000000, 1.224646799147353207E-16 ) ) ;
#245 = CC_DESIGN_PERSON_AND_ORGANIZATION_ASSIGNMENT ( #212, #242, ( #46 ) ) ;
#246 = ORIENTED_EDGE ( 'NONE', *, *, #216, .T. ) ;
#247 = ADVANCED_FACE ( 'NONE', ( #34 ), #147, .F. ) ;
#248 = AXIS2_PLACEMENT_3D ( 'NONE', #300, #93, #168 ) ;
#249 = ORIENTED_EDGE ( 'NONE', *, *, #225, .T. ) ;
#250 = EDGE_LOOP ( 'NONE', ( #160 ) ) ;
#251 = CIRCLE ( 'NONE', #29, 0.4046140331774484844 ) ;
#252 = EDGE_LOOP ( 'NONE', ( #207 ) ) ;
#253 = CARTESIAN_POINT ( 'NONE',  ( 4.326206186437938361E-16, -1.517428863139266434E-17, 0.1239074698268724795 ) ) ;
#254 = EDGE_LOOP ( 'NONE', ( #298 ) ) ;
#255 = CYLINDRICAL_SURFACE ( 'NONE', #248, 0.7499999999999978906 ) ;
#256 = CARTESIAN_POINT ( 'NONE',  ( 1.256933281983528008E-14, 3.509437891428740672E-33, 3.600000000000000089 ) ) ;
#257 = DATE_TIME_ROLE ( 'classification_date' ) ;
#258 = APPROVAL ( #142, 'UNSPECIFIED' ) ;
#259 = CIRCLE ( 'NONE', #287, 0.7499999999999984457 ) ;
#260 = APPLICATION_PROTOCOL_DEFINITION ( 'international standard', 'config_control_design', 1994, #267 ) ;
#261 = DIRECTION ( 'NONE',  ( -3.491481338843133355E-15, 1.224646799147353207E-16, -1.000000000000000000 ) ) ;
#262 = DIRECTION ( 'NONE',  ( 1.000000000000000000, 0.0000000000000000000, 0.0000000000000000000 ) ) ;
#263 = UNCERTAINTY_MEASURE_WITH_UNIT (LENGTH_MEASURE( 1.000000000000000082E-05 ), #218, 'distance_accuracy_value', 'NONE');
#264 = DIRECTION ( 'NONE',  ( 4.759918802773198521E-31, 1.000000000000000000, 1.339798034155199644E-16 ) ) ;
#265 = PERSON_AND_ORGANIZATION ( #285, #195 ) ;
#266 = MANIFOLD_SOLID_BREP ( 'Corps-Déplacer/Copier1[1]', #194 ) ;
#267 = APPLICATION_CONTEXT ( 'configuration controlled 3d designs of mechanical parts and assemblies' ) ;
#268 = VERTEX_POINT ( 'NONE', #59 ) ;
#269 = APPROVAL_DATE_TIME ( #197, #94 ) ;
#270 = CARTESIAN_POINT ( 'NONE',  ( 0.0000000000000000000, 0.0000000000000000000, 0.0000000000000000000 ) ) ;
#271 = MANIFOLD_SOLID_BREP ( 'Corps-Déplacer/Copier1[2]', #73 ) ;
#272 = DIRECTION ( 'NONE',  ( 0.0000000000000000000, -1.000000000000000000, 0.0000000000000000000 ) ) ;
#273 = ADVANCED_FACE ( 'NONE', ( #288 ), #101, .F. ) ;
#274 = CC_DESIGN_DATE_AND_TIME_ASSIGNMENT ( #289, #257, ( #74 ) ) ;
#275 = ORIENTED_EDGE ( 'NONE', *, *, #85, .T. ) ;
#276 = AXIS2_PLACEMENT_3D ( 'NONE', #178, #7, #244 ) ;
#277 = EDGE_LOOP ( 'NONE', ( #275 ) ) ;
#278 = CARTESIAN_POINT ( 'NONE',  ( 1.571166602479409813E-15, -5.510910596163088939E-17, 0.4499999999999999556 ) ) ;
#279 = DIRECTION ( 'NONE',  ( -3.491481338843133355E-15, 1.224646799147353207E-16, -1.000000000000000000 ) ) ;
#280 = AXIS2_PLACEMENT_3D ( 'NONE', #286, #104, #79 ) ;
#281 = PLANE ( 'NONE',  #167 ) ;
#282 = COORDINATED_UNIVERSAL_TIME_OFFSET ( 1, 0, .AHEAD. ) ;
#283 = DIRECTION ( 'NONE',  ( 0.0000000000000000000, 1.000000000000000000, 0.0000000000000000000 ) ) ;
#284 = VERTEX_POINT ( 'NONE', #127 ) ;
#285 = PERSON ( 'UNSPECIFIED', 'UNSPECIFIED', 'UNSPECIFIED', ('UNSPECIFIED'), ('UNSPECIFIED'), ('UNSPECIFIED') ) ;
#286 = CARTESIAN_POINT ( 'NONE',  ( 1.256933281983528008E-14, 3.509437891428740672E-33, 3.600000000000000089 ) ) ;
#287 = AXIS2_PLACEMENT_3D ( 'NONE', #75, #170, #18 ) ;
#288 = FACE_OUTER_BOUND ( 'NONE', #47, .T. ) ;
#289 = DATE_AND_TIME ( #200, #221 ) ;
#290 = EDGE_CURVE ( 'NONE', #122, #122, #251, .T. ) ;
#291 = CARTESIAN_POINT ( 'NONE',  ( 1.042207179644675275E-13, 0.7499999999999947820, 29.84999999999999787 ) ) ;
#292 = PRODUCT_DEFINITION_SHAPE ( 'NONE', 'NONE',  #65 ) ;
#293 = FACE_OUTER_BOUND ( 'NONE', #133, .T. ) ;
#294 = CIRCLE ( 'NONE', #107, 0.4679999999999996385 ) ;
#295 = AXIS2_PLACEMENT_3D ( 'NONE', #135, #137, #92 ) ;
#296 = CC_DESIGN_PERSON_AND_ORGANIZATION_ASSIGNMENT ( #302, #54, ( #46 ) ) ;
#297 = FACE_BOUND ( 'NONE', #252, .T. ) ;
#298 = ORIENTED_EDGE ( 'NONE', *, *, #131, .F. ) ;
#299 = ADVANCED_FACE ( 'NONE', ( #3 ), #12, .F. ) ;
#300 = CARTESIAN_POINT ( 'NONE',  ( 0.0000000000000000000, 0.0000000000000000000, 0.0000000000000000000 ) ) ;
#301 = DIRECTION ( 'NONE',  ( -3.491481338843133355E-15, 1.224646799147353207E-16, -1.000000000000000000 ) ) ;
#302 = PERSON_AND_ORGANIZATION ( #285, #195 ) ;
#303 = DIRECTION ( 'NONE',  ( -3.491481338843133355E-15, 1.224646799147353207E-16, -1.000000000000000000 ) ) ;
ENDSEC;
END-ISO-10303-21;
