ISO-10303-21;
HEADER;
FILE_DESCRIPTION (( 'STEP AP203' ),
    '1' );
FILE_NAME ('992516.step',
    '2021-12-17T12:38:09',
    ( '' ),
    ( '' ),
    'SwSTEP 2.0',
    'SolidWorks 2019',
    '' );
FILE_SCHEMA (( 'CONFIG_CONTROL_DESIGN' ));
ENDSEC;

DATA;
#1 = CC_DESIGN_APPROVAL ( #34, ( #219 ) ) ;
#2 = PERSON_AND_ORGANIZATION ( #18, #122 ) ;
#3 = MANIFOLD_SOLID_BREP ( 'Corps-Déplacer/Copier1[1]', #218 ) ;
#4 = DATE_TIME_ROLE ( 'creation_date' ) ;
#5 = ORIENTED_EDGE ( 'NONE', *, *, #65, .F. ) ;
#6 = CIRCLE ( 'NONE', #257, 0.4179999999999999272 ) ;
#7 = EDGE_CURVE ( 'NONE', #91, #91, #22, .T. ) ;
#8 = ADVANCED_FACE ( 'NONE', ( #104, #40 ), #244, .T. ) ;
#9 = CARTESIAN_POINT ( 'NONE',  ( 1.047444401652940007E-13, -3.673940397442059178E-15, 30.00000000000000000 ) ) ;
#10 = EDGE_LOOP ( 'NONE', ( #142 ) ) ;
#11 = AXIS2_PLACEMENT_3D ( 'NONE', #129, #206, #92 ) ;
#12 = CARTESIAN_POINT ( 'NONE',  ( 3.865699991268713835E-16, -1.355905033231477330E-17, 0.1107180481895278790 ) ) ;
#13 = EDGE_LOOP ( 'NONE', ( #100 ) ) ;
#14 = FACE_OUTER_BOUND ( 'NONE', #261, .T. ) ;
#15 = EDGE_CURVE ( 'NONE', #277, #277, #298, .T. ) ;
#16 = CARTESIAN_POINT ( 'NONE',  ( 1.117274028429802674E-14, 3.134497945763276270E-33, 3.200000000000000178 ) ) ;
#17 = CONICAL_SURFACE ( 'NONE', #173, 0.3617692847791195154, 1.047197551196592746 ) ;
#18 = PERSON ( 'UNSPECIFIED', 'UNSPECIFIED', 'UNSPECIFIED', ('UNSPECIFIED'), ('UNSPECIFIED'), ('UNSPECIFIED') ) ;
#19 = FACE_OUTER_BOUND ( 'NONE', #171, .T. ) ;
#20 = DIRECTION ( 'NONE',  ( -3.491481338843133355E-15, 1.224646799147353207E-16, -1.000000000000000000 ) ) ;
#21 = DATE_AND_TIME ( #229, #178 ) ;
#22 = CIRCLE ( 'NONE', #207, 0.5999999999999986455 ) ;
#23 = APPLICATION_PROTOCOL_DEFINITION ( 'international standard', 'config_control_design', 1994, #214 ) ;
#24 = CARTESIAN_POINT ( 'NONE',  ( 0.0000000000000000000, 0.0000000000000000000, 0.0000000000000000000 ) ) ;
#25 = CC_DESIGN_PERSON_AND_ORGANIZATION_ASSIGNMENT ( #262, #260, ( #231 ) ) ;
#26 = CARTESIAN_POINT ( 'NONE',  ( 1.117274028429802674E-14, 0.4179999999999995386, 3.200000000000000178 ) ) ;
#27 = CALENDAR_DATE ( 2021, 17, 12 ) ;
#28 = CIRCLE ( 'NONE', #69, 0.7499999999999970024 ) ;
#29 = DATE_TIME_ROLE ( 'classification_date' ) ;
#30 = ORIENTED_EDGE ( 'NONE', *, *, #233, .T. ) ;
#31 = EDGE_LOOP ( 'NONE', ( #240 ) ) ;
#32 = CC_DESIGN_SECURITY_CLASSIFICATION ( #231, ( #219 ) ) ;
#33 = PRODUCT_DEFINITION_SHAPE ( 'NONE', 'NONE',  #160 ) ;
#34 = APPROVAL ( #213, 'UNSPECIFIED' ) ;
#35 = DIRECTION ( 'NONE',  ( 3.491481338843133355E-15, -1.224646799147353207E-16, 1.000000000000000000 ) ) ;
#36 = ORIENTED_EDGE ( 'NONE', *, *, #271, .F. ) ;
#37 = CYLINDRICAL_SURFACE ( 'NONE', #163, 0.4179999999999997606 ) ;
#38 = ORIENTED_EDGE ( 'NONE', *, *, #7, .T. ) ;
#39 = PLANE ( 'NONE',  #184 ) ;
#40 = FACE_BOUND ( 'NONE', #221, .T. ) ;
#41 = ADVANCED_FACE ( 'NONE', ( #127 ), #80, .F. ) ;
#42 = DIRECTION ( 'NONE',  ( -3.491481338843133355E-15, 1.224646799147353207E-16, -1.000000000000000000 ) ) ;
#43 = CARTESIAN_POINT ( 'NONE',  ( 1.396592535537253342E-15, -4.898587196589413075E-17, 0.4000000000000000222 ) ) ;
#44 = TOROIDAL_SURFACE ( 'NONE', #113, 2.418000000000000149, 2.000000000000000000 ) ;
#45 = CARTESIAN_POINT ( 'NONE',  ( 1.921133790152962326E-14, 0.7499999999999963363, 5.502345863287673389 ) ) ;
#46 = DIRECTION ( 'NONE',  ( -3.491481338843133355E-15, 1.224646799147353207E-16, -1.000000000000000000 ) ) ;
#47 = APPROVAL_ROLE ( '' ) ;
#48 = DIRECTION ( 'NONE',  ( 0.0000000000000000000, 1.000000000000000000, 0.0000000000000000000 ) ) ;
#49 = DIRECTION ( 'NONE',  ( -3.491481338843133355E-15, 1.224646799147353207E-16, -1.000000000000000000 ) ) ;
#50 =( NAMED_UNIT ( * ) PLANE_ANGLE_UNIT ( ) SI_UNIT ( $, .RADIAN. ) );
#51 = AXIS2_PLACEMENT_3D ( 'NONE', #111, #46, #48 ) ;
#52 = ADVANCED_FACE ( 'NONE', ( #14, #99 ), #265, .T. ) ;
#53 = UNCERTAINTY_MEASURE_WITH_UNIT (LENGTH_MEASURE( 1.000000000000000082E-05 ), #280, 'distance_accuracy_value', 'NONE');
#54 = LOCAL_TIME ( 13, 38, 9.000000000000000000, #164 ) ;
#55 = DATE_AND_TIME ( #27, #63 ) ;
#56 = ADVANCED_FACE ( 'NONE', ( #83 ), #174, .F. ) ;
#57 = DATE_AND_TIME ( #119, #54 ) ;
#58 = AXIS2_PLACEMENT_3D ( 'NONE', #61, #196, #64 ) ;
#59 = DIRECTION ( 'NONE',  ( 0.0000000000000000000, 1.000000000000000000, 0.0000000000000000000 ) ) ;
#60 = ORIENTED_EDGE ( 'NONE', *, *, #264, .F. ) ;
#61 = CARTESIAN_POINT ( 'NONE',  ( 1.047444401652940007E-13, -3.673940397442059178E-15, 30.00000000000000000 ) ) ;
#62 = FACE_BOUND ( 'NONE', #76, .T. ) ;
#63 = LOCAL_TIME ( 13, 38, 9.000000000000000000, #144 ) ;
#64 = DIRECTION ( 'NONE',  ( 0.0000000000000000000, 1.000000000000000000, 0.0000000000000000000 ) ) ;
#65 = EDGE_CURVE ( 'NONE', #180, #180, #28, .T. ) ;
#66 = ORIENTED_EDGE ( 'NONE', *, *, #233, .F. ) ;
#67 = ADVANCED_FACE ( 'NONE', ( #241 ), #39, .T. ) ;
#68 = DIRECTION ( 'NONE',  ( -3.992731055574116009E-31, -1.000000000000000000, -1.123853880879637251E-16 ) ) ;
#69 = AXIS2_PLACEMENT_3D ( 'NONE', #126, #108, #59 ) ;
#70 =( NAMED_UNIT ( * ) SI_UNIT ( $, .STERADIAN. ) SOLID_ANGLE_UNIT ( ) );
#71 = ORIENTED_EDGE ( 'NONE', *, *, #65, .T. ) ;
#72 = DIRECTION ( 'NONE',  ( 4.607487905232626494E-31, 1.000000000000000000, 1.296892550819982742E-16 ) ) ;
#73 = CARTESIAN_POINT ( 'NONE',  ( 1.396592535537253539E-15, 0.4179999999999995386, 0.4000000000000000777 ) ) ;
#74 = ADVANCED_FACE ( 'NONE', ( #194, #190 ), #44, .F. ) ;
#75 = FACE_OUTER_BOUND ( 'NONE', #284, .T. ) ;
#76 = EDGE_LOOP ( 'NONE', ( #60 ) ) ;
#77 = PRODUCT ( '992516', '992516', '', ( #230 ) ) ;
#78 = DATE_AND_TIME ( #140, #161 ) ;
#79 = DIRECTION ( 'NONE',  ( -3.491481338843133355E-15, 1.224646799147353207E-16, -1.000000000000000000 ) ) ;
#80 = PLANE ( 'NONE',  #211 ) ;
#81 = DIRECTION ( 'NONE',  ( 4.275831445896957731E-31, 1.000000000000000000, 1.224646799147353207E-16 ) ) ;
#82 = AXIS2_PLACEMENT_3D ( 'NONE', #85, #175, #157 ) ;
#83 = FACE_OUTER_BOUND ( 'NONE', #237, .T. ) ;
#84 = CC_DESIGN_DATE_AND_TIME_ASSIGNMENT ( #57, #4, ( #160 ) ) ;
#85 = CARTESIAN_POINT ( 'NONE',  ( 1.396592535537253342E-15, -4.898587196589413075E-17, 0.4000000000000000222 ) ) ;
#86 = DIRECTION ( 'NONE',  ( -3.491481338843133355E-15, 1.224646799147353207E-16, -1.000000000000000000 ) ) ;
#87 = PERSON_AND_ORGANIZATION ( #18, #122 ) ;
#88 = CARTESIAN_POINT ( 'NONE',  ( 3.865699991268713835E-16, -1.355905033231477330E-17, 0.1107180481895278790 ) ) ;
#89 = APPROVAL_PERSON_ORGANIZATION ( #204, #137, #47 ) ;
#90 = CIRCLE ( 'NONE', #275, 0.3617692847791195154 ) ;
#91 = VERTEX_POINT ( 'NONE', #203 ) ;
#92 = DIRECTION ( 'NONE',  ( 0.0000000000000000000, 1.000000000000000000, 0.0000000000000000000 ) ) ;
#93 = AXIS2_PLACEMENT_3D ( 'NONE', #123, #243, #246 ) ;
#94 = PERSON_AND_ORGANIZATION_ROLE ( 'design_supplier' ) ;
#95 = PERSON_AND_ORGANIZATION ( #18, #122 ) ;
#96 = COORDINATED_UNIVERSAL_TIME_OFFSET ( 1, 0, .AHEAD. ) ;
#97 = AXIS2_PLACEMENT_3D ( 'NONE', #43, #296, #72 ) ;
#98 = ORIENTED_EDGE ( 'NONE', *, *, #7, .F. ) ;
#99 = FACE_OUTER_BOUND ( 'NONE', #198, .T. ) ;
#100 = ORIENTED_EDGE ( 'NONE', *, *, #143, .T. ) ;
#101 = AXIS2_PLACEMENT_3D ( 'NONE', #105, #239, #223 ) ;
#102 = DIRECTION ( 'NONE',  ( -3.491481338843133355E-15, 1.224646799147353207E-16, -1.000000000000000000 ) ) ;
#103 = ORIENTED_EDGE ( 'NONE', *, *, #271, .T. ) ;
#104 = FACE_OUTER_BOUND ( 'NONE', #263, .T. ) ;
#105 = CARTESIAN_POINT ( 'NONE',  ( 0.0000000000000000000, 0.0000000000000000000, 0.0000000000000000000 ) ) ;
#106 = MANIFOLD_SOLID_BREP ( 'Corps-Déplacer/Copier1[2]', #256 ) ;
#107 = APPROVAL ( #121, 'UNSPECIFIED' ) ;
#108 = DIRECTION ( 'NONE',  ( -3.491481338843133355E-15, 1.224646799147353207E-16, -1.000000000000000000 ) ) ;
#109 = CARTESIAN_POINT ( 'NONE',  ( -3.634456729012415100E-32, 1.274795815262579206E-33, -1.040949779275250386E-17 ) ) ;
#110 = DIRECTION ( 'NONE',  ( 1.000000000000000000, 0.0000000000000000000, 0.0000000000000000000 ) ) ;
#111 = CARTESIAN_POINT ( 'NONE',  ( 1.396592535537253342E-14, -4.898587196589412829E-16, 4.000000000000000000 ) ) ;
#112 = APPROVAL_DATE_TIME ( #21, #137 ) ;
#113 = AXIS2_PLACEMENT_3D ( 'NONE', #288, #79, #170 ) ;
#114 = CARTESIAN_POINT ( 'NONE',  ( 1.042207179644675275E-13, 0.7499999999999947820, 29.84999999999999787 ) ) ;
#115 = ADVANCED_FACE ( 'NONE', ( #148, #290 ), #37, .T. ) ;
#116 = APPROVAL_STATUS ( 'not_yet_approved' ) ;
#117 = DIRECTION ( 'NONE',  ( 0.0000000000000000000, 0.0000000000000000000, 1.000000000000000000 ) ) ;
#118 = CC_DESIGN_PERSON_AND_ORGANIZATION_ASSIGNMENT ( #202, #162, ( #160 ) ) ;
#119 = CALENDAR_DATE ( 2021, 17, 12 ) ;
#120 = SHAPE_DEFINITION_REPRESENTATION ( #33, #182 ) ;
#121 = APPROVAL_STATUS ( 'not_yet_approved' ) ;
#122 = ORGANIZATION ( 'UNSPECIFIED', 'UNSPECIFIED', '' ) ;
#123 = CARTESIAN_POINT ( 'NONE',  ( -7.268913458024830200E-32, 2.549591630525158412E-33, -2.081899558550500773E-17 ) ) ;
#124 = CARTESIAN_POINT ( 'NONE',  ( 0.0000000000000000000, 0.0000000000000000000, 0.0000000000000000000 ) ) ;
#125 = APPROVAL_PERSON_ORGANIZATION ( #95, #34, #138 ) ;
#126 = CARTESIAN_POINT ( 'NONE',  ( 1.921133790152962326E-14, -6.738430249276928790E-16, 5.502345863287673389 ) ) ;
#127 = FACE_OUTER_BOUND ( 'NONE', #289, .T. ) ;
#128 = AXIS2_PLACEMENT_3D ( 'NONE', #24, #117, #110 ) ;
#129 = CARTESIAN_POINT ( 'NONE',  ( 1.042207179644675275E-13, -3.655570695454848748E-15, 29.84999999999999787 ) ) ;
#130 = CARTESIAN_POINT ( 'NONE',  ( 1.396592535537253342E-14, 0.4179999999999995386, 4.000000000000000000 ) ) ;
#131 = FACE_OUTER_BOUND ( 'NONE', #13, .T. ) ;
#132 = COORDINATED_UNIVERSAL_TIME_OFFSET ( 1, 0, .AHEAD. ) ;
#133 = DIRECTION ( 'NONE',  ( 0.0000000000000000000, 1.000000000000000000, 0.0000000000000000000 ) ) ;
#134 = LOCAL_TIME ( 13, 38, 9.000000000000000000, #286 ) ;
#135 = APPLICATION_PROTOCOL_DEFINITION ( 'international standard', 'config_control_design', 1994, #222 ) ;
#136 = CARTESIAN_POINT ( 'NONE',  ( 0.0000000000000000000, 0.1700000000000000122, 0.0000000000000000000 ) ) ;
#137 = APPROVAL ( #116, 'UNSPECIFIED' ) ;
#138 = APPROVAL_ROLE ( '' ) ;
#139 = CIRCLE ( 'NONE', #11, 0.7499999999999984457 ) ;
#140 = CALENDAR_DATE ( 2021, 17, 12 ) ;
#141 = APPROVAL_DATE_TIME ( #78, #107 ) ;
#142 = ORIENTED_EDGE ( 'NONE', *, *, #255, .T. ) ;
#143 = EDGE_CURVE ( 'NONE', #185, #185, #90, .T. ) ;
#144 = COORDINATED_UNIVERSAL_TIME_OFFSET ( 1, 0, .AHEAD. ) ;
#145 =( GEOMETRIC_REPRESENTATION_CONTEXT ( 3 ) GLOBAL_UNCERTAINTY_ASSIGNED_CONTEXT ( ( #53 ) ) GLOBAL_UNIT_ASSIGNED_CONTEXT ( ( #280, #50, #70 ) ) REPRESENTATION_CONTEXT ( 'NONE', 'WORKASPACE' ) );
#146 = CARTESIAN_POINT ( 'NONE',  ( 1.117274028429802674E-14, 3.134497945763276270E-33, 3.200000000000000178 ) ) ;
#147 = CC_DESIGN_PERSON_AND_ORGANIZATION_ASSIGNMENT ( #2, #94, ( #219 ) ) ;
#148 = FACE_OUTER_BOUND ( 'NONE', #285, .T. ) ;
#149 = EDGE_LOOP ( 'NONE', ( #188 ) ) ;
#150 = FACE_OUTER_BOUND ( 'NONE', #212, .T. ) ;
#151 = AXIS2_PLACEMENT_3D ( 'NONE', #109, #176, #228 ) ;
#152 = CARTESIAN_POINT ( 'NONE',  ( 1.921133790152962326E-14, -6.738430249276928790E-16, 5.502345863287673389 ) ) ;
#153 = DIRECTION ( 'NONE',  ( 0.0000000000000000000, 1.000000000000000000, 0.0000000000000000000 ) ) ;
#154 = ADVANCED_FACE ( 'NONE', ( #62, #150 ), #191, .T. ) ;
#155 = CARTESIAN_POINT ( 'NONE',  ( 1.117274028429802674E-14, -3.918869757271530460E-16, 3.200000000000000178 ) ) ;
#156 = CIRCLE ( 'NONE', #225, 0.4179999999999999272 ) ;
#157 = DIRECTION ( 'NONE',  ( -4.607487905232626494E-31, -1.000000000000000000, -1.296892550819982742E-16 ) ) ;
#158 = DIRECTION ( 'NONE',  ( 0.0000000000000000000, 1.000000000000000000, 0.0000000000000000000 ) ) ;
#159 = VERTEX_POINT ( 'NONE', #114 ) ;
#160 = PRODUCT_DEFINITION ( 'UNKNOWN', '', #219, #299 ) ;
#161 = LOCAL_TIME ( 13, 38, 9.000000000000000000, #96 ) ;
#162 = PERSON_AND_ORGANIZATION_ROLE ( 'creator' ) ;
#163 = AXIS2_PLACEMENT_3D ( 'NONE', #124, #102, #81 ) ;
#164 = COORDINATED_UNIVERSAL_TIME_OFFSET ( 1, 0, .AHEAD. ) ;
#165 = ORIENTED_EDGE ( 'NONE', *, *, #189, .F. ) ;
#166 = ORIENTED_EDGE ( 'NONE', *, *, #264, .T. ) ;
#167 = SECURITY_CLASSIFICATION_LEVEL ( 'unclassified' ) ;
#168 = CARTESIAN_POINT ( 'NONE',  ( 1.047444401652940007E-13, 4.499279347985507822E-33, 30.00000000000000000 ) ) ;
#169 = CC_DESIGN_APPROVAL ( #107, ( #231 ) ) ;
#170 = DIRECTION ( 'NONE',  ( 4.396045544598902711E-31, 1.000000000000000000, 1.224646799147353207E-16 ) ) ;
#171 = EDGE_LOOP ( 'NONE', ( #216 ) ) ;
#172 = DIRECTION ( 'NONE',  ( -3.491481338843133355E-15, 1.224646799147353207E-16, -1.000000000000000000 ) ) ;
#173 = AXIS2_PLACEMENT_3D ( 'NONE', #88, #272, #68 ) ;
#174 = PLANE ( 'NONE',  #270 ) ;
#175 = DIRECTION ( 'NONE',  ( 3.491481338843133355E-15, -1.224646799147353207E-16, 1.000000000000000000 ) ) ;
#176 = DIRECTION ( 'NONE',  ( 3.491481338843133355E-15, -1.224646799147353207E-16, 1.000000000000000000 ) ) ;
#177 = PERSON_AND_ORGANIZATION_ROLE ( 'design_owner' ) ;
#178 = LOCAL_TIME ( 13, 38, 9.000000000000000000, #132 ) ;
#179 = DIRECTION ( 'NONE',  ( 0.0000000000000000000, 1.000000000000000000, 0.0000000000000000000 ) ) ;
#180 = VERTEX_POINT ( 'NONE', #45 ) ;
#181 = DIRECTION ( 'NONE',  ( 4.275831445896958607E-31, 1.000000000000000000, 1.224646799147353207E-16 ) ) ;
#182 = ADVANCED_BREP_SHAPE_REPRESENTATION ( '992516', ( #3, #106, #128 ), #145 ) ;
#183 = CYLINDRICAL_SURFACE ( 'NONE', #238, 0.4179999999999999827 ) ;
#184 = AXIS2_PLACEMENT_3D ( 'NONE', #146, #35, #215 ) ;
#185 = VERTEX_POINT ( 'NONE', #274 ) ;
#186 = PERSON_AND_ORGANIZATION ( #18, #122 ) ;
#187 = CC_DESIGN_APPROVAL ( #137, ( #160 ) ) ;
#188 = ORIENTED_EDGE ( 'NONE', *, *, #195, .F. ) ;
#189 = EDGE_CURVE ( 'NONE', #250, #250, #156, .T. ) ;
#190 = FACE_OUTER_BOUND ( 'NONE', #192, .T. ) ;
#191 = CONICAL_SURFACE ( 'NONE', #278, 0.7499999999999970024, 0.2617993877991423579 ) ;
#192 = EDGE_LOOP ( 'NONE', ( #166 ) ) ;
#193 = DIRECTION ( 'NONE',  ( 3.491481338843133355E-15, -1.224646799147353207E-16, 1.000000000000000000 ) ) ;
#194 = FACE_OUTER_BOUND ( 'NONE', #149, .T. ) ;
#195 = EDGE_CURVE ( 'NONE', #252, #252, #283, .T. ) ;
#196 = DIRECTION ( 'NONE',  ( -3.491481338843133355E-15, 1.224646799147353207E-16, -1.000000000000000000 ) ) ;
#197 = CIRCLE ( 'NONE', #287, 0.4861483474218604162 ) ;
#198 = EDGE_LOOP ( 'NONE', ( #103 ) ) ;
#199 = ADVANCED_FACE ( 'NONE', ( #226, #201 ), #236, .T. ) ;
#200 = FACE_BOUND ( 'NONE', #31, .T. ) ;
#201 = FACE_OUTER_BOUND ( 'NONE', #10, .T. ) ;
#202 = PERSON_AND_ORGANIZATION ( #18, #122 ) ;
#203 = CARTESIAN_POINT ( 'NONE',  ( 1.047444401652940007E-13, 0.5999999999999949818, 30.00000000000000000 ) ) ;
#204 = PERSON_AND_ORGANIZATION ( #18, #122 ) ;
#205 = ADVANCED_FACE ( 'NONE', ( #200, #131 ), #17, .T. ) ;
#206 = DIRECTION ( 'NONE',  ( -3.491481338843133355E-15, 1.224646799147353207E-16, -1.000000000000000000 ) ) ;
#207 = AXIS2_PLACEMENT_3D ( 'NONE', #9, #42, #153 ) ;
#208 = APPROVAL_DATE_TIME ( #55, #34 ) ;
#209 = DATE_AND_TIME ( #254, #134 ) ;
#210 = EDGE_LOOP ( 'NONE', ( #30 ) ) ;
#211 = AXIS2_PLACEMENT_3D ( 'NONE', #168, #291, #269 ) ;
#212 = EDGE_LOOP ( 'NONE', ( #71 ) ) ;
#213 = APPROVAL_STATUS ( 'not_yet_approved' ) ;
#214 = APPLICATION_CONTEXT ( 'configuration controlled 3d designs of mechanical parts and assemblies' ) ;
#215 = DIRECTION ( 'NONE',  ( -4.275831445896958607E-31, -1.000000000000000000, -1.224646799147353207E-16 ) ) ;
#216 = ORIENTED_EDGE ( 'NONE', *, *, #15, .T. ) ;
#217 = DIRECTION ( 'NONE',  ( -4.275831445896958607E-31, -1.000000000000000000, -1.224646799147353207E-16 ) ) ;
#218 = CLOSED_SHELL ( 'NONE', ( #56, #294, #74, #154, #52, #8, #41 ) ) ;
#219 = PRODUCT_DEFINITION_FORMATION_WITH_SPECIFIED_SOURCE ( 'ANY', '', #77, .NOT_KNOWN. ) ;
#220 = EDGE_LOOP ( 'NONE', ( #267 ) ) ;
#221 = EDGE_LOOP ( 'NONE', ( #38 ) ) ;
#222 = APPLICATION_CONTEXT ( 'configuration controlled 3d designs of mechanical parts and assemblies' ) ;
#223 = DIRECTION ( 'NONE',  ( 4.275831445896958607E-31, 1.000000000000000000, 1.224646799147353207E-16 ) ) ;
#224 = CC_DESIGN_DATE_AND_TIME_ASSIGNMENT ( #209, #29, ( #231 ) ) ;
#225 = AXIS2_PLACEMENT_3D ( 'NONE', #251, #295, #133 ) ;
#226 = FACE_BOUND ( 'NONE', #220, .T. ) ;
#227 = PRODUCT_RELATED_PRODUCT_CATEGORY ( 'detail', '', ( #77 ) ) ;
#228 = DIRECTION ( 'NONE',  ( -4.275831445896958607E-31, -1.000000000000000000, -1.224646799147353207E-16 ) ) ;
#229 = CALENDAR_DATE ( 2021, 17, 12 ) ;
#230 = MECHANICAL_CONTEXT ( 'NONE', #222, 'mechanical' ) ;
#231 = SECURITY_CLASSIFICATION ( '', '', #167 ) ;
#232 = CARTESIAN_POINT ( 'NONE',  ( 1.117274028429802674E-14, 0.4179999999999995386, 3.200000000000000178 ) ) ;
#233 = EDGE_CURVE ( 'NONE', #300, #300, #6, .T. ) ;
#234 = VERTEX_POINT ( 'NONE', #73 ) ;
#235 = PERSON_AND_ORGANIZATION_ROLE ( 'creator' ) ;
#236 = CONICAL_SURFACE ( 'NONE', #82, 0.4179999999999995941, 0.1919862177193692732 ) ;
#237 = EDGE_LOOP ( 'NONE', ( #266 ) ) ;
#238 = AXIS2_PLACEMENT_3D ( 'NONE', #301, #49, #181 ) ;
#239 = DIRECTION ( 'NONE',  ( -3.491481338843133355E-15, 1.224646799147353207E-16, -1.000000000000000000 ) ) ;
#240 = ORIENTED_EDGE ( 'NONE', *, *, #15, .F. ) ;
#241 = FACE_OUTER_BOUND ( 'NONE', #293, .T. ) ;
#242 = ORIENTED_EDGE ( 'NONE', *, *, #195, .T. ) ;
#243 = DIRECTION ( 'NONE',  ( -3.491481338843133355E-15, 1.224646799147353207E-16, -1.000000000000000000 ) ) ;
#244 = CONICAL_SURFACE ( 'NONE', #58, 0.5999999999999986455, 0.7853981633974450594 ) ;
#245 = DIRECTION ( 'NONE',  ( 3.491481338843133355E-15, -1.224646799147353207E-16, 1.000000000000000000 ) ) ;
#246 = DIRECTION ( 'NONE',  ( 4.275831445896958607E-31, 1.000000000000000000, 1.224646799147353207E-16 ) ) ;
#247 = PLANE ( 'NONE',  #151 ) ;
#248 = CIRCLE ( 'NONE', #97, 0.4179999999999995941 ) ;
#249 = DIRECTION ( 'NONE',  ( 0.0000000000000000000, -1.000000000000000000, 0.0000000000000000000 ) ) ;
#250 = VERTEX_POINT ( 'NONE', #26 ) ;
#251 = CARTESIAN_POINT ( 'NONE',  ( 1.117274028429802674E-14, -3.918869757271530460E-16, 3.200000000000000178 ) ) ;
#252 = VERTEX_POINT ( 'NONE', #130 ) ;
#253 = ADVANCED_FACE ( 'NONE', ( #19 ), #247, .F. ) ;
#254 = CALENDAR_DATE ( 2021, 17, 12 ) ;
#255 = EDGE_CURVE ( 'NONE', #234, #234, #248, .T. ) ;
#256 = CLOSED_SHELL ( 'NONE', ( #253, #205, #199, #115, #67 ) ) ;
#257 = AXIS2_PLACEMENT_3D ( 'NONE', #155, #86, #179 ) ;
#258 = APPROVAL_ROLE ( '' ) ;
#259 = ORIENTED_EDGE ( 'NONE', *, *, #255, .F. ) ;
#260 = PERSON_AND_ORGANIZATION_ROLE ( 'classification_officer' ) ;
#261 = EDGE_LOOP ( 'NONE', ( #5 ) ) ;
#262 = PERSON_AND_ORGANIZATION ( #18, #122 ) ;
#263 = EDGE_LOOP ( 'NONE', ( #36 ) ) ;
#264 = EDGE_CURVE ( 'NONE', #276, #276, #197, .T. ) ;
#265 = CYLINDRICAL_SURFACE ( 'NONE', #101, 0.7499999999999977796 ) ;
#266 = ORIENTED_EDGE ( 'NONE', *, *, #189, .T. ) ;
#267 = ORIENTED_EDGE ( 'NONE', *, *, #143, .F. ) ;
#268 = DIRECTION ( 'NONE',  ( 3.992731055574116009E-31, 1.000000000000000000, 1.123853880879637251E-16 ) ) ;
#269 = DIRECTION ( 'NONE',  ( 4.275831445896958607E-31, 1.000000000000000000, 1.224646799147353207E-16 ) ) ;
#270 = AXIS2_PLACEMENT_3D ( 'NONE', #16, #193, #217 ) ;
#271 = EDGE_CURVE ( 'NONE', #159, #159, #139, .T. ) ;
#272 = DIRECTION ( 'NONE',  ( 3.491481338843133355E-15, -1.224646799147353207E-16, 1.000000000000000000 ) ) ;
#273 = CARTESIAN_POINT ( 'NONE',  ( 1.577324908759778822E-14, -5.532511026875750163E-16, 4.517638090205028156 ) ) ;
#274 = CARTESIAN_POINT ( 'NONE',  ( 3.865699991268715314E-16, 0.3617692847791195154, 0.1107180481895279206 ) ) ;
#275 = AXIS2_PLACEMENT_3D ( 'NONE', #12, #172, #268 ) ;
#276 = VERTEX_POINT ( 'NONE', #303 ) ;
#277 = VERTEX_POINT ( 'NONE', #136 ) ;
#278 = AXIS2_PLACEMENT_3D ( 'NONE', #152, #245, #249 ) ;
#279 = CC_DESIGN_PERSON_AND_ORGANIZATION_ASSIGNMENT ( #186, #235, ( #219 ) ) ;
#280 =( LENGTH_UNIT ( ) NAMED_UNIT ( * ) SI_UNIT ( .MILLI., .METRE. ) );
#281 = PERSON_AND_ORGANIZATION ( #18, #122 ) ;
#282 = EDGE_LOOP ( 'NONE', ( #242 ) ) ;
#283 = CIRCLE ( 'NONE', #51, 0.4180000000000000382 ) ;
#284 = EDGE_LOOP ( 'NONE', ( #165 ) ) ;
#285 = EDGE_LOOP ( 'NONE', ( #259 ) ) ;
#286 = COORDINATED_UNIVERSAL_TIME_OFFSET ( 1, 0, .AHEAD. ) ;
#287 = AXIS2_PLACEMENT_3D ( 'NONE', #273, #20, #158 ) ;
#288 = CARTESIAN_POINT ( 'NONE',  ( 1.396592535537253342E-14, -4.336808689942017736E-16, 4.000000000000000000 ) ) ;
#289 = EDGE_LOOP ( 'NONE', ( #98 ) ) ;
#290 = FACE_OUTER_BOUND ( 'NONE', #210, .T. ) ;
#291 = DIRECTION ( 'NONE',  ( -3.491481338843133355E-15, 1.224646799147353207E-16, -1.000000000000000000 ) ) ;
#292 = APPROVAL_PERSON_ORGANIZATION ( #281, #107, #258 ) ;
#293 = EDGE_LOOP ( 'NONE', ( #66 ) ) ;
#294 = ADVANCED_FACE ( 'NONE', ( #75, #297 ), #183, .T. ) ;
#295 = DIRECTION ( 'NONE',  ( -3.491481338843133355E-15, 1.224646799147353207E-16, -1.000000000000000000 ) ) ;
#296 = DIRECTION ( 'NONE',  ( -3.491481338843133355E-15, 1.224646799147353207E-16, -1.000000000000000000 ) ) ;
#297 = FACE_OUTER_BOUND ( 'NONE', #282, .T. ) ;
#298 = CIRCLE ( 'NONE', #93, 0.1700000000000000122 ) ;
#299 = DESIGN_CONTEXT ( 'detailed design', #214, 'design' ) ;
#300 = VERTEX_POINT ( 'NONE', #232 ) ;
#301 = CARTESIAN_POINT ( 'NONE',  ( 0.0000000000000000000, 0.0000000000000000000, 0.0000000000000000000 ) ) ;
#302 = CC_DESIGN_PERSON_AND_ORGANIZATION_ASSIGNMENT ( #87, #177, ( #77 ) ) ;
#303 = CARTESIAN_POINT ( 'NONE',  ( 1.577324908759778822E-14, 0.4861483474218598611, 4.517638090205028156 ) ) ;
ENDSEC;
END-ISO-10303-21;
