ISO-10303-21;
HEADER;
FILE_DESCRIPTION (( 'STEP AP203' ),
    '1' );
FILE_NAME ('992498.step',
    '2021-12-17T12:38:07',
    ( '' ),
    ( '' ),
    'SwSTEP 2.0',
    'SolidWorks 2019',
    '' );
FILE_SCHEMA (( 'CONFIG_CONTROL_DESIGN' ));
ENDSEC;

DATA;
#1 = PERSON_AND_ORGANIZATION_ROLE ( 'design_supplier' ) ;
#2 = ORIENTED_EDGE ( 'NONE', *, *, #205, .F. ) ;
#3 = ADVANCED_FACE ( 'NONE', ( #188, #136 ), #294, .T. ) ;
#4 = DIRECTION ( 'NONE',  ( -3.491481338843133355E-15, 1.224646799147353207E-16, -1.000000000000000000 ) ) ;
#5 = APPROVAL_DATE_TIME ( #239, #275 ) ;
#6 = FACE_OUTER_BOUND ( 'NONE', #192, .T. ) ;
#7 = APPLICATION_CONTEXT ( 'configuration controlled 3d designs of mechanical parts and assemblies' ) ;
#8 = APPROVAL_ROLE ( '' ) ;
#9 = ORIENTED_EDGE ( 'NONE', *, *, #68, .T. ) ;
#10 = AXIS2_PLACEMENT_3D ( 'NONE', #150, #103, #37 ) ;
#11 = ADVANCED_FACE ( 'NONE', ( #279, #258 ), #263, .T. ) ;
#12 = APPROVAL_STATUS ( 'not_yet_approved' ) ;
#13 = FACE_BOUND ( 'NONE', #56, .T. ) ;
#14 = CARTESIAN_POINT ( 'NONE',  ( 1.047444401652940007E-13, 0.5999999999999949818, 30.00000000000000000 ) ) ;
#15 = DIRECTION ( 'NONE',  ( 0.0000000000000000000, 1.000000000000000000, 0.0000000000000000000 ) ) ;
#16 = DIRECTION ( 'NONE',  ( -3.491481338843133355E-15, 1.224646799147353207E-16, -1.000000000000000000 ) ) ;
#17 = DIRECTION ( 'NONE',  ( 4.275831445896958607E-31, 1.000000000000000000, 1.224646799147353207E-16 ) ) ;
#18 = CIRCLE ( 'NONE', #234, 0.5999999999999986455 ) ;
#19 = LOCAL_TIME ( 13, 38, 7.000000000000000000, #285 ) ;
#20 = ADVANCED_FACE ( 'NONE', ( #240 ), #75, .F. ) ;
#21 = MANIFOLD_SOLID_BREP ( 'Corps-Déplacer/Copier1[1]', #284 ) ;
#22 = TOROIDAL_SURFACE ( 'NONE', #257, 2.217999999999999527, 2.000000000000000000 ) ;
#23 = CIRCLE ( 'NONE', #212, 0.2179999999999993610 ) ;
#24 = CC_DESIGN_SECURITY_CLASSIFICATION ( #62, ( #209 ) ) ;
#25 = PERSON_AND_ORGANIZATION ( #111, #122 ) ;
#26 = EDGE_LOOP ( 'NONE', ( #2 ) ) ;
#27 = EDGE_CURVE ( 'NONE', #66, #66, #23, .T. ) ;
#28 = DIRECTION ( 'NONE',  ( -3.491481338843133355E-15, 1.224646799147353207E-16, -1.000000000000000000 ) ) ;
#29 = PERSON_AND_ORGANIZATION_ROLE ( 'design_owner' ) ;
#30 = CARTESIAN_POINT ( 'NONE',  ( 1.047444401652940007E-13, -3.673940397442059178E-15, 30.00000000000000000 ) ) ;
#31 = PERSON_AND_ORGANIZATION_ROLE ( 'creator' ) ;
#32 = DIRECTION ( 'NONE',  ( -3.491481338843133355E-15, 1.224646799147353207E-16, -1.000000000000000000 ) ) ;
#33 = CC_DESIGN_PERSON_AND_ORGANIZATION_ASSIGNMENT ( #148, #44, ( #62 ) ) ;
#34 = EDGE_LOOP ( 'NONE', ( #218 ) ) ;
#35 = MECHANICAL_CONTEXT ( 'NONE', #298, 'mechanical' ) ;
#36 = CARTESIAN_POINT ( 'NONE',  ( 2.137206729288583167E-16, -7.496312098310313747E-18, 0.06121203357187997296 ) ) ;
#37 = DIRECTION ( 'NONE',  ( -4.417270514649640599E-31, -1.000000000000000000, -1.243351115235675031E-16 ) ) ;
#38 = AXIS2_PLACEMENT_3D ( 'NONE', #79, #237, #61 ) ;
#39 =( GEOMETRIC_REPRESENTATION_CONTEXT ( 3 ) GLOBAL_UNCERTAINTY_ASSIGNED_CONTEXT ( ( #123 ) ) GLOBAL_UNIT_ASSIGNED_CONTEXT ( ( #63, #135, #139 ) ) REPRESENTATION_CONTEXT ( 'NONE', 'WORKASPACE' ) );
#40 = CARTESIAN_POINT ( 'NONE',  ( 6.982962677686266711E-15, 0.2179999999999991112, 2.000000000000000000 ) ) ;
#41 = ADVANCED_BREP_SHAPE_REPRESENTATION ( '992498', ( #21, #224, #248 ), #39 ) ;
#42 = DIRECTION ( 'NONE',  ( 0.0000000000000000000, 1.000000000000000000, 0.0000000000000000000 ) ) ;
#43 = CARTESIAN_POINT ( 'NONE',  ( 8.790286409911477337E-15, 0.2861483474218547429, 2.517638090205015722 ) ) ;
#44 = PERSON_AND_ORGANIZATION_ROLE ( 'classification_officer' ) ;
#45 = FACE_BOUND ( 'NONE', #26, .T. ) ;
#46 = DIRECTION ( 'NONE',  ( 0.0000000000000000000, 1.000000000000000000, 0.0000000000000000000 ) ) ;
#47 = CC_DESIGN_DATE_AND_TIME_ASSIGNMENT ( #102, #90, ( #62 ) ) ;
#48 = ADVANCED_FACE ( 'NONE', ( #176, #54 ), #22, .F. ) ;
#49 = CIRCLE ( 'NONE', #213, 0.7499999999999984457 ) ;
#50 = PRODUCT ( '992498', '992498', '', ( #35 ) ) ;
#51 = APPROVAL_STATUS ( 'not_yet_approved' ) ;
#52 = EDGE_LOOP ( 'NONE', ( #76 ) ) ;
#53 = CC_DESIGN_PERSON_AND_ORGANIZATION_ASSIGNMENT ( #129, #1, ( #209 ) ) ;
#54 = FACE_OUTER_BOUND ( 'NONE', #171, .T. ) ;
#55 = PERSON_AND_ORGANIZATION ( #111, #122 ) ;
#56 = EDGE_LOOP ( 'NONE', ( #158 ) ) ;
#57 = CONICAL_SURFACE ( 'NONE', #229, 0.1910223521811068581, 1.047197551196593190 ) ;
#58 = DATE_AND_TIME ( #177, #274 ) ;
#59 = CARTESIAN_POINT ( 'NONE',  ( 2.137206729288583907E-16, 0.1910223521811068581, 0.06121203357188000072 ) ) ;
#60 = ADVANCED_FACE ( 'NONE', ( #82 ), #245, .F. ) ;
#61 = DIRECTION ( 'NONE',  ( 4.275831445896958607E-31, 1.000000000000000000, 1.224646799147353207E-16 ) ) ;
#62 = SECURITY_CLASSIFICATION ( '', '', #270 ) ;
#63 =( LENGTH_UNIT ( ) NAMED_UNIT ( * ) SI_UNIT ( .MILLI., .METRE. ) );
#64 = DIRECTION ( 'NONE',  ( -3.491481338843133355E-15, 1.224646799147353207E-16, -1.000000000000000000 ) ) ;
#65 = DIRECTION ( 'NONE',  ( -3.491481338843133355E-15, 1.224646799147353207E-16, -1.000000000000000000 ) ) ;
#66 = VERTEX_POINT ( 'NONE', #40 ) ;
#67 = DIRECTION ( 'NONE',  ( 4.275831445896959482E-31, 1.000000000000000000, 1.224646799147353207E-16 ) ) ;
#68 = EDGE_CURVE ( 'NONE', #207, #207, #18, .T. ) ;
#69 = CARTESIAN_POINT ( 'NONE',  ( 1.047444401652940007E-13, -3.673940397442059178E-15, 30.00000000000000000 ) ) ;
#70 = EDGE_LOOP ( 'NONE', ( #153 ) ) ;
#71 = CIRCLE ( 'NONE', #145, 0.1910223521811068581 ) ;
#72 = ADVANCED_FACE ( 'NONE', ( #6 ), #106, .T. ) ;
#73 = SHAPE_DEFINITION_REPRESENTATION ( #302, #41 ) ;
#74 = EDGE_LOOP ( 'NONE', ( #157 ) ) ;
#75 = PLANE ( 'NONE',  #165 ) ;
#76 = ORIENTED_EDGE ( 'NONE', *, *, #27, .F. ) ;
#77 = APPLICATION_PROTOCOL_DEFINITION ( 'international standard', 'config_control_design', 1994, #298 ) ;
#78 = COORDINATED_UNIVERSAL_TIME_OFFSET ( 1, 0, .AHEAD. ) ;
#79 = CARTESIAN_POINT ( 'NONE',  ( 0.0000000000000000000, 0.0000000000000000000, 0.0000000000000000000 ) ) ;
#80 = CALENDAR_DATE ( 2021, 17, 12 ) ;
#81 = VERTEX_POINT ( 'NONE', #269 ) ;
#82 = FACE_OUTER_BOUND ( 'NONE', #283, .T. ) ;
#83 = APPROVAL_PERSON_ORGANIZATION ( #215, #275, #8 ) ;
#84 = DIRECTION ( 'NONE',  ( -3.491481338843133355E-15, 1.224646799147353207E-16, -1.000000000000000000 ) ) ;
#85 = VERTEX_POINT ( 'NONE', #253 ) ;
#86 = DIRECTION ( 'NONE',  ( 4.417270514649640599E-31, 1.000000000000000000, 1.243351115235675031E-16 ) ) ;
#87 = AXIS2_PLACEMENT_3D ( 'NONE', #206, #84, #86 ) ;
#88 = AXIS2_PLACEMENT_3D ( 'NONE', #117, #289, #220 ) ;
#89 = DIRECTION ( 'NONE',  ( -4.275831445896958607E-31, -1.000000000000000000, -1.224646799147353207E-16 ) ) ;
#90 = DATE_TIME_ROLE ( 'classification_date' ) ;
#91 = DIRECTION ( 'NONE',  ( 3.491481338843133355E-15, -1.224646799147353207E-16, 1.000000000000000000 ) ) ;
#92 = VERTEX_POINT ( 'NONE', #59 ) ;
#93 = CC_DESIGN_PERSON_AND_ORGANIZATION_ASSIGNMENT ( #105, #116, ( #209 ) ) ;
#94 = ORIENTED_EDGE ( 'NONE', *, *, #255, .F. ) ;
#95 = AXIS2_PLACEMENT_3D ( 'NONE', #159, #110, #17 ) ;
#96 = CC_DESIGN_PERSON_AND_ORGANIZATION_ASSIGNMENT ( #217, #31, ( #114 ) ) ;
#97 = CIRCLE ( 'NONE', #87, 0.2179999999999991389 ) ;
#98 = CC_DESIGN_APPROVAL ( #231, ( #62 ) ) ;
#99 = ADVANCED_FACE ( 'NONE', ( #292, #271 ), #121, .T. ) ;
#100 = EDGE_LOOP ( 'NONE', ( #264 ) ) ;
#101 = CIRCLE ( 'NONE', #267, 0.2179999999999993054 ) ;
#102 = DATE_AND_TIME ( #140, #127 ) ;
#103 = DIRECTION ( 'NONE',  ( 3.491481338843133355E-15, -1.224646799147353207E-16, 1.000000000000000000 ) ) ;
#104 = DIRECTION ( 'NONE',  ( 4.275831445896958607E-31, 1.000000000000000000, 1.224646799147353207E-16 ) ) ;
#105 = PERSON_AND_ORGANIZATION ( #111, #122 ) ;
#106 = PLANE ( 'NONE',  #208 ) ;
#107 = PERSON_AND_ORGANIZATION ( #111, #122 ) ;
#108 = DIRECTION ( 'NONE',  ( 3.491481338843133355E-15, -1.224646799147353207E-16, 1.000000000000000000 ) ) ;
#109 = AXIS2_PLACEMENT_3D ( 'NONE', #222, #119, #89 ) ;
#110 = DIRECTION ( 'NONE',  ( -3.491481338843133355E-15, 1.224646799147353207E-16, -1.000000000000000000 ) ) ;
#111 = PERSON ( 'UNSPECIFIED', 'UNSPECIFIED', 'UNSPECIFIED', ('UNSPECIFIED'), ('UNSPECIFIED'), ('UNSPECIFIED') ) ;
#112 = FACE_OUTER_BOUND ( 'NONE', #124, .T. ) ;
#113 = VERTEX_POINT ( 'NONE', #43 ) ;
#114 = PRODUCT_DEFINITION ( 'UNKNOWN', '', #209, #301 ) ;
#115 = DIRECTION ( 'NONE',  ( -4.275831445896958607E-31, -1.000000000000000000, -1.224646799147353207E-16 ) ) ;
#116 = PERSON_AND_ORGANIZATION_ROLE ( 'creator' ) ;
#117 = CARTESIAN_POINT ( 'NONE',  ( 1.483445237389184513E-14, -5.203225466131215270E-16, 4.248756024801521036 ) ) ;
#118 = AXIS2_PLACEMENT_3D ( 'NONE', #138, #266, #15 ) ;
#119 = DIRECTION ( 'NONE',  ( 3.491481338843133355E-15, -1.224646799147353207E-16, 1.000000000000000000 ) ) ;
#120 = ORIENTED_EDGE ( 'NONE', *, *, #256, .F. ) ;
#121 = CONICAL_SURFACE ( 'NONE', #160, 0.5999999999999986455, 0.7853981633974450594 ) ;
#122 = ORGANIZATION ( 'UNSPECIFIED', 'UNSPECIFIED', '' ) ;
#123 = UNCERTAINTY_MEASURE_WITH_UNIT (LENGTH_MEASURE( 1.000000000000000082E-05 ), #63, 'distance_accuracy_value', 'NONE');
#124 = EDGE_LOOP ( 'NONE', ( #221 ) ) ;
#125 = ADVANCED_FACE ( 'NONE', ( #13, #112 ), #204, .T. ) ;
#126 = EDGE_CURVE ( 'NONE', #113, #113, #247, .T. ) ;
#127 = LOCAL_TIME ( 13, 38, 7.000000000000000000, #78 ) ;
#128 = CIRCLE ( 'NONE', #235, 0.2179999999999993054 ) ;
#129 = PERSON_AND_ORGANIZATION ( #111, #122 ) ;
#130 = DIRECTION ( 'NONE',  ( 4.338788521295866367E-31, 1.000000000000000000, 1.224646799147353207E-16 ) ) ;
#131 = DATE_AND_TIME ( #241, #288 ) ;
#132 = CARTESIAN_POINT ( 'NONE',  ( 6.982962677686268288E-15, -4.336808689942017736E-16, 2.000000000000000444 ) ) ;
#133 = APPROVAL_DATE_TIME ( #58, #226 ) ;
#134 = DIRECTION ( 'NONE',  ( -3.491481338843133355E-15, 1.224646799147353207E-16, -1.000000000000000000 ) ) ;
#135 =( NAMED_UNIT ( * ) PLANE_ANGLE_UNIT ( ) SI_UNIT ( $, .RADIAN. ) );
#136 = FACE_OUTER_BOUND ( 'NONE', #277, .T. ) ;
#137 = FACE_OUTER_BOUND ( 'NONE', #34, .T. ) ;
#138 = CARTESIAN_POINT ( 'NONE',  ( 8.790286409911477337E-15, -3.083217428581027971E-16, 2.517638090205015722 ) ) ;
#139 =( NAMED_UNIT ( * ) SI_UNIT ( $, .STERADIAN. ) SOLID_ANGLE_UNIT ( ) );
#140 = CALENDAR_DATE ( 2021, 17, 12 ) ;
#141 = FACE_OUTER_BOUND ( 'NONE', #281, .T. ) ;
#142 = FACE_OUTER_BOUND ( 'NONE', #74, .T. ) ;
#143 = ORIENTED_EDGE ( 'NONE', *, *, #236, .F. ) ;
#144 = ADVANCED_FACE ( 'NONE', ( #45, #290 ), #57, .T. ) ;
#145 = AXIS2_PLACEMENT_3D ( 'NONE', #36, #64, #182 ) ;
#146 = EDGE_CURVE ( 'NONE', #162, #162, #97, .T. ) ;
#147 = AXIS2_PLACEMENT_3D ( 'NONE', #268, #16, #67 ) ;
#148 = PERSON_AND_ORGANIZATION ( #111, #122 ) ;
#149 = ORIENTED_EDGE ( 'NONE', *, *, #146, .T. ) ;
#150 = CARTESIAN_POINT ( 'NONE',  ( 6.982962677686263752E-16, -2.449293598294705305E-17, 0.1999999999999999001 ) ) ;
#151 = CC_DESIGN_PERSON_AND_ORGANIZATION_ASSIGNMENT ( #107, #29, ( #50 ) ) ;
#152 = COORDINATED_UNIVERSAL_TIME_OFFSET ( 1, 0, .AHEAD. ) ;
#153 = ORIENTED_EDGE ( 'NONE', *, *, #276, .F. ) ;
#154 = COORDINATED_UNIVERSAL_TIME_OFFSET ( 1, 0, .AHEAD. ) ;
#155 = VERTEX_POINT ( 'NONE', #180 ) ;
#156 = CC_DESIGN_APPROVAL ( #226, ( #114 ) ) ;
#157 = ORIENTED_EDGE ( 'NONE', *, *, #256, .T. ) ;
#158 = ORIENTED_EDGE ( 'NONE', *, *, #126, .F. ) ;
#159 = CARTESIAN_POINT ( 'NONE',  ( 0.0000000000000000000, 0.0000000000000000000, 0.0000000000000000000 ) ) ;
#160 = AXIS2_PLACEMENT_3D ( 'NONE', #69, #249, #42 ) ;
#161 = DIRECTION ( 'NONE',  ( 3.491481338843133355E-15, -1.224646799147353207E-16, 1.000000000000000000 ) ) ;
#162 = VERTEX_POINT ( 'NONE', #196 ) ;
#163 = DIRECTION ( 'NONE',  ( -3.780833608731184258E-31, -1.000000000000000000, -1.418946735952634009E-16 ) ) ;
#164 = CARTESIAN_POINT ( 'NONE',  ( 5.586370142149013368E-15, -1.959434878635764984E-16, 1.599999999999999867 ) ) ;
#165 = AXIS2_PLACEMENT_3D ( 'NONE', #198, #108, #238 ) ;
#166 = EDGE_LOOP ( 'NONE', ( #9 ) ) ;
#167 = ADVANCED_FACE ( 'NONE', ( #141, #179 ), #181, .T. ) ;
#168 = ORIENTED_EDGE ( 'NONE', *, *, #236, .T. ) ;
#169 = COORDINATED_UNIVERSAL_TIME_OFFSET ( 1, 0, .AHEAD. ) ;
#170 = EDGE_LOOP ( 'NONE', ( #94 ) ) ;
#171 = EDGE_LOOP ( 'NONE', ( #211 ) ) ;
#172 = CC_DESIGN_DATE_AND_TIME_ASSIGNMENT ( #131, #219, ( #114 ) ) ;
#173 = DIRECTION ( 'NONE',  ( -3.491481338843133355E-15, 1.224646799147353207E-16, -1.000000000000000000 ) ) ;
#174 = CARTESIAN_POINT ( 'NONE',  ( 0.0000000000000000000, 0.0000000000000000000, 0.0000000000000000000 ) ) ;
#175 = CLOSED_SHELL ( 'NONE', ( #303, #144, #3, #300, #72 ) ) ;
#176 = FACE_OUTER_BOUND ( 'NONE', #52, .T. ) ;
#177 = CALENDAR_DATE ( 2021, 17, 12 ) ;
#178 = CARTESIAN_POINT ( 'NONE',  ( 6.982962677686266711E-15, -2.449293598294706414E-16, 2.000000000000000000 ) ) ;
#179 = FACE_OUTER_BOUND ( 'NONE', #194, .T. ) ;
#180 = CARTESIAN_POINT ( 'NONE',  ( 1.042207179644675275E-13, 0.7499999999999947820, 29.84999999999999787 ) ) ;
#181 = CYLINDRICAL_SURFACE ( 'NONE', #185, 0.7499999999999976685 ) ;
#182 = DIRECTION ( 'NONE',  ( 3.780833608731184258E-31, 1.000000000000000000, 1.418946735952634009E-16 ) ) ;
#183 = CARTESIAN_POINT ( 'NONE',  ( 5.586370142149013368E-15, 1.634738163101416609E-33, 1.599999999999999867 ) ) ;
#184 = ORIENTED_EDGE ( 'NONE', *, *, #210, .F. ) ;
#185 = AXIS2_PLACEMENT_3D ( 'NONE', #203, #65, #227 ) ;
#186 = PRODUCT_RELATED_PRODUCT_CATEGORY ( 'detail', '', ( #50 ) ) ;
#187 = CC_DESIGN_APPROVAL ( #275, ( #209 ) ) ;
#188 = FACE_BOUND ( 'NONE', #170, .T. ) ;
#189 = AXIS2_PLACEMENT_3D ( 'NONE', #223, #161, #201 ) ;
#190 = APPROVAL_DATE_TIME ( #295, #231 ) ;
#191 = EDGE_LOOP ( 'NONE', ( #261 ) ) ;
#192 = EDGE_LOOP ( 'NONE', ( #120 ) ) ;
#193 = APPLICATION_PROTOCOL_DEFINITION ( 'international standard', 'config_control_design', 1994, #7 ) ;
#194 = EDGE_LOOP ( 'NONE', ( #299 ) ) ;
#195 = DIRECTION ( 'NONE',  ( 1.000000000000000000, 0.0000000000000000000, 0.0000000000000000000 ) ) ;
#196 = CARTESIAN_POINT ( 'NONE',  ( 6.982962677686264738E-16, 0.2179999999999991112, 0.1999999999999999278 ) ) ;
#197 = AXIS2_PLACEMENT_3D ( 'NONE', #214, #4, #104 ) ;
#198 = CARTESIAN_POINT ( 'NONE',  ( 5.586370142149013368E-15, 1.634738163101416609E-33, 1.599999999999999867 ) ) ;
#199 = VERTEX_POINT ( 'NONE', #291 ) ;
#200 = APPROVAL_PERSON_ORGANIZATION ( #25, #231, #251 ) ;
#201 = DIRECTION ( 'NONE',  ( 0.0000000000000000000, -1.000000000000000000, 0.0000000000000000000 ) ) ;
#202 = CARTESIAN_POINT ( 'NONE',  ( -7.097759348936855360E-32, 0.08499999999999999223, -2.032879073410320814E-17 ) ) ;
#203 = CARTESIAN_POINT ( 'NONE',  ( 0.0000000000000000000, 0.0000000000000000000, 0.0000000000000000000 ) ) ;
#204 = CONICAL_SURFACE ( 'NONE', #189, 0.7499999999999968914, 0.2617993877991359741 ) ;
#205 = EDGE_CURVE ( 'NONE', #250, #250, #233, .T. ) ;
#206 = CARTESIAN_POINT ( 'NONE',  ( 6.982962677686263752E-16, -2.449293598294705305E-17, 0.1999999999999999001 ) ) ;
#207 = VERTEX_POINT ( 'NONE', #14 ) ;
#208 = AXIS2_PLACEMENT_3D ( 'NONE', #183, #252, #115 ) ;
#209 = PRODUCT_DEFINITION_FORMATION_WITH_SPECIFIED_SOURCE ( 'ANY', '', #50, .NOT_KNOWN. ) ;
#210 = EDGE_CURVE ( 'NONE', #199, #199, #273, .T. ) ;
#211 = ORIENTED_EDGE ( 'NONE', *, *, #126, .T. ) ;
#212 = AXIS2_PLACEMENT_3D ( 'NONE', #178, #28, #259 ) ;
#213 = AXIS2_PLACEMENT_3D ( 'NONE', #293, #32, #46 ) ;
#214 = CARTESIAN_POINT ( 'NONE',  ( 1.047444401652940007E-13, 4.499279347985507822E-33, 30.00000000000000000 ) ) ;
#215 = PERSON_AND_ORGANIZATION ( #111, #122 ) ;
#216 = DIRECTION ( 'NONE',  ( 0.0000000000000000000, 1.000000000000000000, 0.0000000000000000000 ) ) ;
#217 = PERSON_AND_ORGANIZATION ( #111, #122 ) ;
#218 = ORIENTED_EDGE ( 'NONE', *, *, #205, .T. ) ;
#219 = DATE_TIME_ROLE ( 'creation_date' ) ;
#220 = DIRECTION ( 'NONE',  ( 0.0000000000000000000, 1.000000000000000000, 0.0000000000000000000 ) ) ;
#221 = ORIENTED_EDGE ( 'NONE', *, *, #210, .T. ) ;
#222 = CARTESIAN_POINT ( 'NONE',  ( -5.366108038974635504E-32, 1.882177332784082970E-33, -1.536914426342785292E-17 ) ) ;
#223 = CARTESIAN_POINT ( 'NONE',  ( 1.483445237389184513E-14, -5.203225466131215270E-16, 4.248756024801521036 ) ) ;
#224 = MANIFOLD_SOLID_BREP ( 'Corps-Déplacer/Copier1[2]', #175 ) ;
#225 = PLANE ( 'NONE',  #109 ) ;
#226 = APPROVAL ( #244, 'UNSPECIFIED' ) ;
#227 = DIRECTION ( 'NONE',  ( 4.275831445896958607E-31, 1.000000000000000000, 1.224646799147353207E-16 ) ) ;
#228 = DIRECTION ( 'NONE',  ( 0.0000000000000000000, 1.000000000000000000, 0.0000000000000000000 ) ) ;
#229 = AXIS2_PLACEMENT_3D ( 'NONE', #296, #91, #163 ) ;
#230 = LOCAL_TIME ( 13, 38, 7.000000000000000000, #169 ) ;
#231 = APPROVAL ( #51, 'UNSPECIFIED' ) ;
#232 = EDGE_LOOP ( 'NONE', ( #168 ) ) ;
#233 = CIRCLE ( 'NONE', #147, 0.08499999999999999223 ) ;
#234 = AXIS2_PLACEMENT_3D ( 'NONE', #30, #173, #216 ) ;
#235 = AXIS2_PLACEMENT_3D ( 'NONE', #286, #265, #228 ) ;
#236 = EDGE_CURVE ( 'NONE', #85, #85, #128, .T. ) ;
#237 = DIRECTION ( 'NONE',  ( -3.491481338843133355E-15, 1.224646799147353207E-16, -1.000000000000000000 ) ) ;
#238 = DIRECTION ( 'NONE',  ( -4.275831445896958607E-31, -1.000000000000000000, -1.224646799147353207E-16 ) ) ;
#239 = DATE_AND_TIME ( #80, #19 ) ;
#240 = FACE_OUTER_BOUND ( 'NONE', #232, .T. ) ;
#241 = CALENDAR_DATE ( 2021, 17, 12 ) ;
#242 = FACE_OUTER_BOUND ( 'NONE', #191, .T. ) ;
#243 = EDGE_LOOP ( 'NONE', ( #143 ) ) ;
#244 = APPROVAL_STATUS ( 'not_yet_approved' ) ;
#245 = PLANE ( 'NONE',  #197 ) ;
#246 = CYLINDRICAL_SURFACE ( 'NONE', #95, 0.2179999999999992222 ) ;
#247 = CIRCLE ( 'NONE', #118, 0.2861483474218550760 ) ;
#248 = AXIS2_PLACEMENT_3D ( 'NONE', #174, #282, #195 ) ;
#249 = DIRECTION ( 'NONE',  ( -3.491481338843133355E-15, 1.224646799147353207E-16, -1.000000000000000000 ) ) ;
#250 = VERTEX_POINT ( 'NONE', #202 ) ;
#251 = APPROVAL_ROLE ( '' ) ;
#252 = DIRECTION ( 'NONE',  ( 3.491481338843133355E-15, -1.224646799147353207E-16, 1.000000000000000000 ) ) ;
#253 = CARTESIAN_POINT ( 'NONE',  ( 5.586370142149013368E-15, 0.2179999999999991112, 1.599999999999999867 ) ) ;
#254 = ORIENTED_EDGE ( 'NONE', *, *, #68, .F. ) ;
#255 = EDGE_CURVE ( 'NONE', #92, #92, #71, .T. ) ;
#256 = EDGE_CURVE ( 'NONE', #81, #81, #101, .T. ) ;
#257 = AXIS2_PLACEMENT_3D ( 'NONE', #132, #134, #130 ) ;
#258 = FACE_OUTER_BOUND ( 'NONE', #272, .T. ) ;
#259 = DIRECTION ( 'NONE',  ( 0.0000000000000000000, 1.000000000000000000, 0.0000000000000000000 ) ) ;
#260 = APPROVAL_ROLE ( '' ) ;
#261 = ORIENTED_EDGE ( 'NONE', *, *, #146, .F. ) ;
#262 = DIRECTION ( 'NONE',  ( 0.0000000000000000000, 1.000000000000000000, 0.0000000000000000000 ) ) ;
#263 = CYLINDRICAL_SURFACE ( 'NONE', #38, 0.2179999999999993332 ) ;
#264 = ORIENTED_EDGE ( 'NONE', *, *, #255, .T. ) ;
#265 = DIRECTION ( 'NONE',  ( -3.491481338843133355E-15, 1.224646799147353207E-16, -1.000000000000000000 ) ) ;
#266 = DIRECTION ( 'NONE',  ( -3.491481338843133355E-15, 1.224646799147353207E-16, -1.000000000000000000 ) ) ;
#267 = AXIS2_PLACEMENT_3D ( 'NONE', #164, #297, #262 ) ;
#268 = CARTESIAN_POINT ( 'NONE',  ( -1.073221607794927101E-31, 3.764354665568165940E-33, -3.073828852685570584E-17 ) ) ;
#269 = CARTESIAN_POINT ( 'NONE',  ( 5.586370142149013368E-15, 0.2179999999999991112, 1.599999999999999867 ) ) ;
#270 = SECURITY_CLASSIFICATION_LEVEL ( 'unclassified' ) ;
#271 = FACE_BOUND ( 'NONE', #166, .T. ) ;
#272 = EDGE_LOOP ( 'NONE', ( #287 ) ) ;
#273 = CIRCLE ( 'NONE', #88, 0.7499999999999968914 ) ;
#274 = LOCAL_TIME ( 13, 38, 7.000000000000000000, #152 ) ;
#275 = APPROVAL ( #12, 'UNSPECIFIED' ) ;
#276 = EDGE_CURVE ( 'NONE', #155, #155, #49, .T. ) ;
#277 = EDGE_LOOP ( 'NONE', ( #149 ) ) ;
#278 = APPROVAL_PERSON_ORGANIZATION ( #55, #226, #260 ) ;
#279 = FACE_OUTER_BOUND ( 'NONE', #243, .T. ) ;
#280 = CALENDAR_DATE ( 2021, 17, 12 ) ;
#281 = EDGE_LOOP ( 'NONE', ( #184 ) ) ;
#282 = DIRECTION ( 'NONE',  ( 0.0000000000000000000, 0.0000000000000000000, 1.000000000000000000 ) ) ;
#283 = EDGE_LOOP ( 'NONE', ( #254 ) ) ;
#284 = CLOSED_SHELL ( 'NONE', ( #20, #11, #48, #125, #167, #99, #60 ) ) ;
#285 = COORDINATED_UNIVERSAL_TIME_OFFSET ( 1, 0, .AHEAD. ) ;
#286 = CARTESIAN_POINT ( 'NONE',  ( 5.586370142149013368E-15, -1.959434878635764984E-16, 1.599999999999999867 ) ) ;
#287 = ORIENTED_EDGE ( 'NONE', *, *, #27, .T. ) ;
#288 = LOCAL_TIME ( 13, 38, 7.000000000000000000, #154 ) ;
#289 = DIRECTION ( 'NONE',  ( -3.491481338843133355E-15, 1.224646799147353207E-16, -1.000000000000000000 ) ) ;
#290 = FACE_OUTER_BOUND ( 'NONE', #100, .T. ) ;
#291 = CARTESIAN_POINT ( 'NONE',  ( 1.483445237389184513E-14, 0.7499999999999963363, 4.248756024801521036 ) ) ;
#292 = FACE_OUTER_BOUND ( 'NONE', #70, .T. ) ;
#293 = CARTESIAN_POINT ( 'NONE',  ( 1.042207179644675275E-13, -3.655570695454848748E-15, 29.84999999999999787 ) ) ;
#294 = CONICAL_SURFACE ( 'NONE', #10, 0.2179999999999991389, 0.1919862177193695230 ) ;
#295 = DATE_AND_TIME ( #280, #230 ) ;
#296 = CARTESIAN_POINT ( 'NONE',  ( 2.137206729288583167E-16, -7.496312098310313747E-18, 0.06121203357187997296 ) ) ;
#297 = DIRECTION ( 'NONE',  ( -3.491481338843133355E-15, 1.224646799147353207E-16, -1.000000000000000000 ) ) ;
#298 = APPLICATION_CONTEXT ( 'configuration controlled 3d designs of mechanical parts and assemblies' ) ;
#299 = ORIENTED_EDGE ( 'NONE', *, *, #276, .T. ) ;
#300 = ADVANCED_FACE ( 'NONE', ( #242, #142 ), #246, .T. ) ;
#301 = DESIGN_CONTEXT ( 'detailed design', #7, 'design' ) ;
#302 = PRODUCT_DEFINITION_SHAPE ( 'NONE', 'NONE',  #114 ) ;
#303 = ADVANCED_FACE ( 'NONE', ( #137 ), #225, .F. ) ;
ENDSEC;
END-ISO-10303-21;
