ISO-10303-21;
HEADER;
FILE_DESCRIPTION (( 'STEP AP203' ),
    '1' );
FILE_NAME ('991586.step',
    '2021-11-30T09:37:02',
    ( '' ),
    ( '' ),
    'SwSTEP 2.0',
    'SolidWorks 2019',
    '' );
FILE_SCHEMA (( 'CONFIG_CONTROL_DESIGN' ));
ENDSEC;

DATA;
#1 = CARTESIAN_POINT ( 'NONE',  ( 8.728703347107827472E-16, -3.061616997868381785E-17, 0.2499999999999998335 ) ) ;
#2 = DIRECTION ( 'NONE',  ( -4.275831445896959482E-31, -1.000000000000000000, -1.224646799147353454E-16 ) ) ;
#3 = DIRECTION ( 'NONE',  ( -3.491481338843133355E-15, 1.224646799147353454E-16, -1.000000000000000000 ) ) ;
#4 = DESIGN_CONTEXT ( 'detailed design', #241, 'design' ) ;
#5 = VERTEX_POINT ( 'NONE', #190 ) ;
#6 = LOCAL_TIME ( 10, 37, 2.000000000000000000, #153 ) ;
#7 = FACE_BOUND ( 'NONE', #249, .T. ) ;
#8 = DIRECTION ( 'NONE',  ( 4.275831445896960358E-31, 1.000000000000000000, 1.224646799147353454E-16 ) ) ;
#9 = CC_DESIGN_PERSON_AND_ORGANIZATION_ASSIGNMENT ( #175, #10, ( #206 ) ) ;
#10 = PERSON_AND_ORGANIZATION_ROLE ( 'design_owner' ) ;
#11 = AXIS2_PLACEMENT_3D ( 'NONE', #1, #20, #137 ) ;
#12 = DATE_AND_TIME ( #293, #6 ) ;
#13 = ORIENTED_EDGE ( 'NONE', *, *, #295, .T. ) ;
#14 = PERSON_AND_ORGANIZATION_ROLE ( 'creator' ) ;
#15 = ORIENTED_EDGE ( 'NONE', *, *, #238, .T. ) ;
#16 = AXIS2_PLACEMENT_3D ( 'NONE', #181, #59, #159 ) ;
#17 = APPROVAL_STATUS ( 'not_yet_approved' ) ;
#18 = DIRECTION ( 'NONE',  ( 4.275831445896959482E-31, 1.000000000000000000, 1.224646799147353454E-16 ) ) ;
#19 = ADVANCED_FACE ( 'NONE', ( #184, #283 ), #34, .T. ) ;
#20 = DIRECTION ( 'NONE',  ( -3.491481338843133355E-15, 1.224646799147353454E-16, -1.000000000000000000 ) ) ;
#21 = DIRECTION ( 'NONE',  ( -4.284604993075055902E-31, -1.000000000000000000, -1.206009090640161772E-16 ) ) ;
#22 = AXIS2_PLACEMENT_3D ( 'NONE', #139, #143, #303 ) ;
#23 = FACE_OUTER_BOUND ( 'NONE', #133, .T. ) ;
#24 = CARTESIAN_POINT ( 'NONE',  ( 2.129803616694311221E-13, 1.199999999999993960, 61.00000000000000000 ) ) ;
#25 = DIRECTION ( 'NONE',  ( -3.491481338843133355E-15, 1.224646799147353454E-16, -1.000000000000000000 ) ) ;
#26 = DIRECTION ( 'NONE',  ( -3.491481338843133355E-15, 1.224646799147353454E-16, -1.000000000000000000 ) ) ;
#27 = CC_DESIGN_PERSON_AND_ORGANIZATION_ASSIGNMENT ( #99, #196, ( #253 ) ) ;
#28 = DATE_AND_TIME ( #95, #267 ) ;
#29 = APPROVAL_ROLE ( '' ) ;
#30 = ORIENTED_EDGE ( 'NONE', *, *, #130, .T. ) ;
#31 = DATE_TIME_ROLE ( 'creation_date' ) ;
#32 = EDGE_LOOP ( 'NONE', ( #131 ) ) ;
#33 = EDGE_LOOP ( 'NONE', ( #252 ) ) ;
#34 = CONICAL_SURFACE ( 'NONE', #71, 1.200000000000001510, 0.7853981633974453924 ) ;
#35 = AXIS2_PLACEMENT_3D ( 'NONE', #146, #25, #91 ) ;
#36 = EDGE_LOOP ( 'NONE', ( #151 ) ) ;
#37 = CARTESIAN_POINT ( 'NONE',  ( 3.491481338843133355E-14, 1.011213033459755924E-32, 10.00000000000000000 ) ) ;
#38 = CARTESIAN_POINT ( 'NONE',  ( -5.148795595717535848E-31, 1.805954388359617843E-32, -1.474673668862722937E-16 ) ) ;
#39 = DATE_TIME_ROLE ( 'classification_date' ) ;
#40 = FACE_OUTER_BOUND ( 'NONE', #248, .T. ) ;
#41 = CARTESIAN_POINT ( 'NONE',  ( 3.611522686833351350E-14, -1.266751636124733252E-15, 10.34381208530243157 ) ) ;
#42 = CARTESIAN_POINT ( 'NONE',  ( 2.129803616694311221E-13, -7.470345474798856659E-15, 61.00000000000000000 ) ) ;
#43 = FACE_OUTER_BOUND ( 'NONE', #186, .T. ) ;
#44 = AXIS2_PLACEMENT_3D ( 'NONE', #289, #187, #193 ) ;
#45 = VERTEX_POINT ( 'NONE', #236 ) ;
#46 = CARTESIAN_POINT ( 'NONE',  ( 3.491481338843133355E-14, -1.224646799147353454E-15, 10.00000000000000000 ) ) ;
#47 = CARTESIAN_POINT ( 'NONE',  ( 3.611522686833351350E-14, 1.149999999999997025, 10.34381208530243157 ) ) ;
#48 = AXIS2_PLACEMENT_3D ( 'NONE', #46, #290, #242 ) ;
#49 = AXIS2_PLACEMENT_3D ( 'NONE', #208, #118, #89 ) ;
#50 = CARTESIAN_POINT ( 'NONE',  ( 9.482837466738113547E-14, -3.326131639679139478E-15, 27.15992596391809499 ) ) ;
#51 = CALENDAR_DATE ( 2021, 30, 11 ) ;
#52 = CIRCLE ( 'NONE', #66, 1.149999999999998135 ) ;
#53 = APPLICATION_PROTOCOL_DEFINITION ( 'international standard', 'config_control_design', 1994, #222 ) ;
#54 = EDGE_LOOP ( 'NONE', ( #141 ) ) ;
#55 = CC_DESIGN_PERSON_AND_ORGANIZATION_ASSIGNMENT ( #274, #105, ( #202 ) ) ;
#56 = EDGE_LOOP ( 'NONE', ( #275 ) ) ;
#57 = CIRCLE ( 'NONE', #48, 1.348500000000000032 ) ;
#58 = FACE_OUTER_BOUND ( 'NONE', #154, .T. ) ;
#59 = DIRECTION ( 'NONE',  ( 3.491481338843133355E-15, -1.224646799147353454E-16, 1.000000000000000000 ) ) ;
#60 = ADVANCED_FACE ( 'NONE', ( #232 ), #285, .F. ) ;
#61 = APPROVAL_PERSON_ORGANIZATION ( #82, #163, #85 ) ;
#62 = DIRECTION ( 'NONE',  ( 3.491481338843133355E-15, -1.224646799147353454E-16, 1.000000000000000000 ) ) ;
#63 = FACE_OUTER_BOUND ( 'NONE', #33, .T. ) ;
#64 = PERSON ( 'UNSPECIFIED', 'UNSPECIFIED', 'UNSPECIFIED', ('UNSPECIFIED'), ('UNSPECIFIED'), ('UNSPECIFIED') ) ;
#65 = DIRECTION ( 'NONE',  ( -3.491481338843133355E-15, 1.224646799147353454E-16, -1.000000000000000000 ) ) ;
#66 = AXIS2_PLACEMENT_3D ( 'NONE', #41, #80, #230 ) ;
#67 = DIRECTION ( 'NONE',  ( -3.491481338843133355E-15, 1.224646799147353454E-16, -1.000000000000000000 ) ) ;
#68 = DIRECTION ( 'NONE',  ( -3.491481338843133355E-15, 1.224646799147353454E-16, -1.000000000000000000 ) ) ;
#69 = VERTEX_POINT ( 'NONE', #47 ) ;
#70 = CARTESIAN_POINT ( 'NONE',  ( 2.119329172677781757E-13, -7.433606070824434221E-15, 60.69999999999999574 ) ) ;
#71 = AXIS2_PLACEMENT_3D ( 'NONE', #42, #204, #113 ) ;
#72 = CIRCLE ( 'NONE', #44, 1.180384493975579652 ) ;
#73 = VERTEX_POINT ( 'NONE', #75 ) ;
#74 = EDGE_CURVE ( 'NONE', #69, #69, #52, .T. ) ;
#75 = CARTESIAN_POINT ( 'NONE',  ( 8.849961221477468513E-14, 1.180384493975576543, 25.34729635533384240 ) ) ;
#76 = ORIENTED_EDGE ( 'NONE', *, *, #233, .T. ) ;
#77 = AXIS2_PLACEMENT_3D ( 'NONE', #136, #226, #18 ) ;
#78 = APPROVAL ( #132, 'UNSPECIFIED' ) ;
#79 = CARTESIAN_POINT ( 'NONE',  ( 0.0000000000000000000, 0.0000000000000000000, 0.0000000000000000000 ) ) ;
#80 = DIRECTION ( 'NONE',  ( -3.491481338843133355E-15, 1.224646799147353454E-16, -1.000000000000000000 ) ) ;
#81 = LOCAL_TIME ( 10, 37, 2.000000000000000000, #276 ) ;
#82 = PERSON_AND_ORGANIZATION ( #64, #122 ) ;
#83 = FACE_OUTER_BOUND ( 'NONE', #56, .T. ) ;
#84 = APPROVAL ( #250, 'UNSPECIFIED' ) ;
#85 = APPROVAL_ROLE ( '' ) ;
#86 = CARTESIAN_POINT ( 'NONE',  ( 2.129803616694311221E-13, 8.998558695971049855E-33, 61.00000000000000000 ) ) ;
#87 = ORIENTED_EDGE ( 'NONE', *, *, #172, .T. ) ;
#88 = CIRCLE ( 'NONE', #220, 1.500000000000001332 ) ;
#89 = DIRECTION ( 'NONE',  ( 0.0000000000000000000, 1.000000000000000000, 0.0000000000000000000 ) ) ;
#90 = DIRECTION ( 'NONE',  ( -3.491481338843133355E-15, 1.224646799147353454E-16, -1.000000000000000000 ) ) ;
#91 = DIRECTION ( 'NONE',  ( 4.275831445896960358E-31, 1.000000000000000000, 1.224646799147353454E-16 ) ) ;
#92 = CC_DESIGN_APPROVAL ( #163, ( #164 ) ) ;
#93 = CARTESIAN_POINT ( 'NONE',  ( 0.0000000000000000000, 0.0000000000000000000, 0.0000000000000000000 ) ) ;
#94 = DIRECTION ( 'NONE',  ( 4.275831445896960358E-31, 1.000000000000000000, 1.224646799147353454E-16 ) ) ;
#95 = CALENDAR_DATE ( 2021, 30, 11 ) ;
#96 = CLOSED_SHELL ( 'NONE', ( #183, #269, #264, #188, #192, #273, #19, #60 ) ) ;
#97 = CC_DESIGN_APPROVAL ( #78, ( #253 ) ) ;
#98 = ORIENTED_EDGE ( 'NONE', *, *, #212, .T. ) ;
#99 = PERSON_AND_ORGANIZATION ( #64, #122 ) ;
#100 = ORIENTED_EDGE ( 'NONE', *, *, #74, .T. ) ;
#101 = MECHANICAL_CONTEXT ( 'NONE', #222, 'mechanical' ) ;
#102 = CONICAL_SURFACE ( 'NONE', #259, 1.348499999999998700, 0.5235987755982920433 ) ;
#103 = CC_DESIGN_DATE_AND_TIME_ASSIGNMENT ( #12, #31, ( #202 ) ) ;
#104 = AXIS2_PLACEMENT_3D ( 'NONE', #191, #167, #2 ) ;
#105 = PERSON_AND_ORGANIZATION_ROLE ( 'creator' ) ;
#106 = EDGE_LOOP ( 'NONE', ( #76 ) ) ;
#107 = ADVANCED_FACE ( 'NONE', ( #201 ), #302, .F. ) ;
#108 = FACE_OUTER_BOUND ( 'NONE', #216, .T. ) ;
#109 = TOROIDAL_SURFACE ( 'NONE', #77, 3.150000000000000355, 2.000000000000000444 ) ;
#110 = DIRECTION ( 'NONE',  ( -3.491481338843133355E-15, 1.224646799147353454E-16, -1.000000000000000000 ) ) ;
#111 = PRODUCT_DEFINITION_SHAPE ( 'NONE', 'NONE',  #202 ) ;
#112 = CARTESIAN_POINT ( 'NONE',  ( 2.129803616694311221E-13, -7.470345474798856659E-15, 61.00000000000000000 ) ) ;
#113 = DIRECTION ( 'NONE',  ( 0.0000000000000000000, 1.000000000000000000, 0.0000000000000000000 ) ) ;
#114 = CIRCLE ( 'NONE', #11, 1.348499999999998700 ) ;
#115 = DIRECTION ( 'NONE',  ( -3.491481338843133355E-15, 1.224646799147353454E-16, -1.000000000000000000 ) ) ;
#116 = FACE_OUTER_BOUND ( 'NONE', #170, .T. ) ;
#117 = UNCERTAINTY_MEASURE_WITH_UNIT (LENGTH_MEASURE( 1.000000000000000082E-05 ), #155, 'distance_accuracy_value', 'NONE');
#118 = DIRECTION ( 'NONE',  ( -3.491481338843133355E-15, 1.224646799147353454E-16, -1.000000000000000000 ) ) ;
#119 = CC_DESIGN_PERSON_AND_ORGANIZATION_ASSIGNMENT ( #173, #177, ( #164 ) ) ;
#120 = CIRCLE ( 'NONE', #296, 1.204162432702594598 ) ;
#121 = CYLINDRICAL_SURFACE ( 'NONE', #234, 1.499999999999998668 ) ;
#122 = ORGANIZATION ( 'UNSPECIFIED', 'UNSPECIFIED', '' ) ;
#123 = FACE_OUTER_BOUND ( 'NONE', #281, .T. ) ;
#124 = MANIFOLD_SOLID_BREP ( 'Corps-Déplacer/Copier1[1]', #96 ) ;
#125 = VERTEX_POINT ( 'NONE', #171 ) ;
#126 = ORIENTED_EDGE ( 'NONE', *, *, #233, .F. ) ;
#127 = AXIS2_PLACEMENT_3D ( 'NONE', #50, #26, #166 ) ;
#128 = DATE_AND_TIME ( #51, #246 ) ;
#129 = CALENDAR_DATE ( 2021, 30, 11 ) ;
#130 = EDGE_CURVE ( 'NONE', #148, #148, #245, .T. ) ;
#131 = ORIENTED_EDGE ( 'NONE', *, *, #287, .F. ) ;
#132 = APPROVAL_STATUS ( 'not_yet_approved' ) ;
#133 = EDGE_LOOP ( 'NONE', ( #260 ) ) ;
#134 = AXIS2_PLACEMENT_3D ( 'NONE', #265, #90, #8 ) ;
#135 = APPROVAL_PERSON_ORGANIZATION ( #247, #78, #29 ) ;
#136 = CARTESIAN_POINT ( 'NONE',  ( 8.728703347107833388E-14, -3.035766082959412415E-15, 25.00000000000000000 ) ) ;
#137 = DIRECTION ( 'NONE',  ( 4.284604993075055902E-31, 1.000000000000000000, 1.206009090640161772E-16 ) ) ;
#138 = AXIS2_PLACEMENT_3D ( 'NONE', #37, #200, #300 ) ;
#139 = CARTESIAN_POINT ( 'NONE',  ( -2.574397797858767924E-31, 9.029771941798089217E-33, -7.373368344313614685E-17 ) ) ;
#140 = COORDINATED_UNIVERSAL_TIME_OFFSET ( 1, 0, .AHEAD. ) ;
#141 = ORIENTED_EDGE ( 'NONE', *, *, #142, .F. ) ;
#142 = EDGE_CURVE ( 'NONE', #5, #5, #114, .T. ) ;
#143 = DIRECTION ( 'NONE',  ( 3.491481338843133355E-15, -1.224646799147353454E-16, 1.000000000000000000 ) ) ;
#144 = CARTESIAN_POINT ( 'NONE',  ( 8.728703347107833388E-14, 1.149999999999997469, 25.00000000000000000 ) ) ;
#145 = DIRECTION ( 'NONE',  ( 4.275831445896960358E-31, 1.000000000000000000, 1.224646799147353454E-16 ) ) ;
#146 = CARTESIAN_POINT ( 'NONE',  ( 0.0000000000000000000, 0.0000000000000000000, 0.0000000000000000000 ) ) ;
#147 = DIRECTION ( 'NONE',  ( 0.0000000000000000000, 1.000000000000000000, 0.0000000000000000000 ) ) ;
#148 = VERTEX_POINT ( 'NONE', #24 ) ;
#149 =( NAMED_UNIT ( * ) SI_UNIT ( $, .STERADIAN. ) SOLID_ANGLE_UNIT ( ) );
#150 = EDGE_LOOP ( 'NONE', ( #277 ) ) ;
#151 = ORIENTED_EDGE ( 'NONE', *, *, #212, .F. ) ;
#152 = ORIENTED_EDGE ( 'NONE', *, *, #172, .F. ) ;
#153 = COORDINATED_UNIVERSAL_TIME_OFFSET ( 1, 0, .AHEAD. ) ;
#154 = EDGE_LOOP ( 'NONE', ( #13 ) ) ;
#155 =( LENGTH_UNIT ( ) NAMED_UNIT ( * ) SI_UNIT ( .MILLI., .METRE. ) );
#156 = CC_DESIGN_DATE_AND_TIME_ASSIGNMENT ( #229, #39, ( #164 ) ) ;
#157 = CIRCLE ( 'NONE', #291, 1.150000000000000355 ) ;
#158 = FACE_BOUND ( 'NONE', #199, .T. ) ;
#159 = DIRECTION ( 'NONE',  ( 0.0000000000000000000, -1.000000000000000000, 0.0000000000000000000 ) ) ;
#160 = SHAPE_DEFINITION_REPRESENTATION ( #111, #261 ) ;
#161 = ADVANCED_FACE ( 'NONE', ( #254, #108 ), #102, .T. ) ;
#162 = FACE_OUTER_BOUND ( 'NONE', #54, .T. ) ;
#163 = APPROVAL ( #17, 'UNSPECIFIED' ) ;
#164 = SECURITY_CLASSIFICATION ( '', '', #294 ) ;
#165 = CYLINDRICAL_SURFACE ( 'NONE', #35, 1.149999999999999245 ) ;
#166 = DIRECTION ( 'NONE',  ( 0.0000000000000000000, 1.000000000000000000, 0.0000000000000000000 ) ) ;
#167 = DIRECTION ( 'NONE',  ( 3.491481338843133355E-15, -1.224646799147353454E-16, 1.000000000000000000 ) ) ;
#168 = AXIS2_PLACEMENT_3D ( 'NONE', #79, #272, #213 ) ;
#169 =( NAMED_UNIT ( * ) PLANE_ANGLE_UNIT ( ) SI_UNIT ( $, .RADIAN. ) );
#170 = EDGE_LOOP ( 'NONE', ( #15 ) ) ;
#171 = CARTESIAN_POINT ( 'NONE',  ( 9.482837466738113547E-14, 1.499999999999992673, 27.15992596391809499 ) ) ;
#172 = EDGE_CURVE ( 'NONE', #286, #286, #157, .T. ) ;
#173 = PERSON_AND_ORGANIZATION ( #64, #122 ) ;
#174 = LOCAL_TIME ( 10, 37, 2.000000000000000000, #140 ) ;
#175 = PERSON_AND_ORGANIZATION ( #64, #122 ) ;
#176 = ORIENTED_EDGE ( 'NONE', *, *, #74, .F. ) ;
#177 = PERSON_AND_ORGANIZATION_ROLE ( 'classification_officer' ) ;
#178 = CC_DESIGN_SECURITY_CLASSIFICATION ( #164, ( #253 ) ) ;
#179 = CC_DESIGN_APPROVAL ( #84, ( #202 ) ) ;
#180 = DATE_AND_TIME ( #257, #174 ) ;
#181 = CARTESIAN_POINT ( 'NONE',  ( 9.482837466738113547E-14, -3.326131639679139478E-15, 27.15992596391809499 ) ) ;
#182 = CARTESIAN_POINT ( 'NONE',  ( 8.728703347107827472E-16, -3.061616997868381785E-17, 0.2499999999999998335 ) ) ;
#183 = ADVANCED_FACE ( 'NONE', ( #63 ), #203, .F. ) ;
#184 = FACE_OUTER_BOUND ( 'NONE', #150, .T. ) ;
#185 = CIRCLE ( 'NONE', #266, 1.348500000000000032 ) ;
#186 = EDGE_LOOP ( 'NONE', ( #126 ) ) ;
#187 = DIRECTION ( 'NONE',  ( -3.491481338843133355E-15, 1.224646799147353454E-16, -1.000000000000000000 ) ) ;
#188 = ADVANCED_FACE ( 'NONE', ( #40, #58 ), #109, .F. ) ;
#189 = CARTESIAN_POINT ( 'NONE',  ( 0.0000000000000000000, 1.204162432702594598, 0.0000000000000000000 ) ) ;
#190 = CARTESIAN_POINT ( 'NONE',  ( 8.728703347107833388E-16, 1.348499999999998700, 0.2500000000000000000 ) ) ;
#191 = CARTESIAN_POINT ( 'NONE',  ( 3.491481338843133355E-14, 1.011213033459755924E-32, 10.00000000000000000 ) ) ;
#192 = ADVANCED_FACE ( 'NONE', ( #158, #83 ), #194, .T. ) ;
#193 = DIRECTION ( 'NONE',  ( 0.0000000000000000000, 1.000000000000000000, 0.0000000000000000000 ) ) ;
#194 = CONICAL_SURFACE ( 'NONE', #16, 1.499999999999996003, 0.1745329251994267583 ) ;
#195 = COORDINATED_UNIVERSAL_TIME_OFFSET ( 1, 0, .AHEAD. ) ;
#196 = PERSON_AND_ORGANIZATION_ROLE ( 'design_supplier' ) ;
#197 = APPROVAL_ROLE ( '' ) ;
#198 = EDGE_LOOP ( 'NONE', ( #98 ) ) ;
#199 = EDGE_LOOP ( 'NONE', ( #218 ) ) ;
#200 = DIRECTION ( 'NONE',  ( 3.491481338843133355E-15, -1.224646799147353454E-16, 1.000000000000000000 ) ) ;
#201 = FACE_OUTER_BOUND ( 'NONE', #198, .T. ) ;
#202 = PRODUCT_DEFINITION ( 'UNKNOWN', '', #253, #4 ) ;
#203 = PLANE ( 'NONE',  #138 ) ;
#204 = DIRECTION ( 'NONE',  ( -3.491481338843133355E-15, 1.224646799147353454E-16, -1.000000000000000000 ) ) ;
#205 = FACE_OUTER_BOUND ( 'NONE', #32, .T. ) ;
#206 = PRODUCT ( '991586', '991586', '', ( #101 ) ) ;
#207 = VERTEX_POINT ( 'NONE', #263 ) ;
#208 = CARTESIAN_POINT ( 'NONE',  ( 3.611522686833351350E-14, -1.266751636124733252E-15, 10.34381208530243157 ) ) ;
#209 = AXIS2_PLACEMENT_3D ( 'NONE', #86, #110, #301 ) ;
#210 = FACE_OUTER_BOUND ( 'NONE', #244, .T. ) ;
#211 = CARTESIAN_POINT ( 'NONE',  ( 3.491481338843133355E-14, -1.224646799147353454E-15, 10.00000000000000000 ) ) ;
#212 = EDGE_CURVE ( 'NONE', #235, #235, #120, .T. ) ;
#213 = DIRECTION ( 'NONE',  ( 1.000000000000000000, 0.0000000000000000000, 0.0000000000000000000 ) ) ;
#214 = EDGE_LOOP ( 'NONE', ( #271 ) ) ;
#215 = APPROVAL_DATE_TIME ( #128, #78 ) ;
#216 = EDGE_LOOP ( 'NONE', ( #297 ) ) ;
#217 = PERSON_AND_ORGANIZATION ( #64, #122 ) ;
#218 = ORIENTED_EDGE ( 'NONE', *, *, #295, .F. ) ;
#219 = CARTESIAN_POINT ( 'NONE',  ( 2.119329172677781757E-13, 1.499999999999994005, 60.69999999999999574 ) ) ;
#220 = AXIS2_PLACEMENT_3D ( 'NONE', #70, #67, #268 ) ;
#221 = APPROVAL_PERSON_ORGANIZATION ( #217, #84, #197 ) ;
#222 = APPLICATION_CONTEXT ( 'configuration controlled 3d designs of mechanical parts and assemblies' ) ;
#223 = EDGE_CURVE ( 'NONE', #207, #207, #185, .T. ) ;
#224 = MANIFOLD_SOLID_BREP ( 'Corps-Déplacer/Copier1[2]', #227 ) ;
#225 = EDGE_LOOP ( 'NONE', ( #30 ) ) ;
#226 = DIRECTION ( 'NONE',  ( -3.491481338843133355E-15, 1.224646799147353454E-16, -1.000000000000000000 ) ) ;
#227 = CLOSED_SHELL ( 'NONE', ( #107, #161, #251, #280 ) ) ;
#228 = CIRCLE ( 'NONE', #127, 1.499999999999996003 ) ;
#229 = DATE_AND_TIME ( #129, #81 ) ;
#230 = DIRECTION ( 'NONE',  ( 0.0000000000000000000, 1.000000000000000000, 0.0000000000000000000 ) ) ;
#231 = DIRECTION ( 'NONE',  ( -3.491481338843133355E-15, 1.224646799147353454E-16, -1.000000000000000000 ) ) ;
#232 = FACE_OUTER_BOUND ( 'NONE', #214, .T. ) ;
#233 = EDGE_CURVE ( 'NONE', #45, #45, #57, .T. ) ;
#234 = AXIS2_PLACEMENT_3D ( 'NONE', #93, #65, #94 ) ;
#235 = VERTEX_POINT ( 'NONE', #189 ) ;
#236 = CARTESIAN_POINT ( 'NONE',  ( 3.491481338843133355E-14, 1.348499999999998700, 10.00000000000000000 ) ) ;
#237 = FACE_OUTER_BOUND ( 'NONE', #106, .T. ) ;
#238 = EDGE_CURVE ( 'NONE', #288, #288, #88, .T. ) ;
#239 = CONICAL_SURFACE ( 'NONE', #49, 1.149999999999998135, 0.5235987755982921543 ) ;
#240 = PLANE ( 'NONE',  #104 ) ;
#241 = APPLICATION_CONTEXT ( 'configuration controlled 3d designs of mechanical parts and assemblies' ) ;
#242 = DIRECTION ( 'NONE',  ( 0.0000000000000000000, 1.000000000000000000, 0.0000000000000000000 ) ) ;
#243 = APPLICATION_PROTOCOL_DEFINITION ( 'international standard', 'config_control_design', 1994, #241 ) ;
#244 = EDGE_LOOP ( 'NONE', ( #176 ) ) ;
#245 = CIRCLE ( 'NONE', #278, 1.200000000000001510 ) ;
#246 = LOCAL_TIME ( 10, 37, 2.000000000000000000, #270 ) ;
#247 = PERSON_AND_ORGANIZATION ( #64, #122 ) ;
#248 = EDGE_LOOP ( 'NONE', ( #152 ) ) ;
#249 = EDGE_LOOP ( 'NONE', ( #100 ) ) ;
#250 = APPROVAL_STATUS ( 'not_yet_approved' ) ;
#251 = ADVANCED_FACE ( 'NONE', ( #162, #237 ), #262, .T. ) ;
#252 = ORIENTED_EDGE ( 'NONE', *, *, #223, .T. ) ;
#253 = PRODUCT_DEFINITION_FORMATION_WITH_SPECIFIED_SOURCE ( 'ANY', '', #206, .NOT_KNOWN. ) ;
#254 = FACE_BOUND ( 'NONE', #36, .T. ) ;
#255 = CC_DESIGN_PERSON_AND_ORGANIZATION_ASSIGNMENT ( #298, #14, ( #253 ) ) ;
#256 = DIRECTION ( 'NONE',  ( 0.0000000000000000000, 1.000000000000000000, 0.0000000000000000000 ) ) ;
#257 = CALENDAR_DATE ( 2021, 30, 11 ) ;
#258 = DIRECTION ( 'NONE',  ( 0.0000000000000000000, 1.000000000000000000, 0.0000000000000000000 ) ) ;
#259 = AXIS2_PLACEMENT_3D ( 'NONE', #182, #62, #21 ) ;
#260 = ORIENTED_EDGE ( 'NONE', *, *, #223, .F. ) ;
#261 = ADVANCED_BREP_SHAPE_REPRESENTATION ( '991586', ( #124, #224, #168 ), #279 ) ;
#262 = CYLINDRICAL_SURFACE ( 'NONE', #134, 1.348499999999999366 ) ;
#263 = CARTESIAN_POINT ( 'NONE',  ( 3.491481338843133355E-14, 1.348499999999998700, 10.00000000000000000 ) ) ;
#264 = ADVANCED_FACE ( 'NONE', ( #210, #123 ), #165, .T. ) ;
#265 = CARTESIAN_POINT ( 'NONE',  ( 0.0000000000000000000, 0.0000000000000000000, 0.0000000000000000000 ) ) ;
#266 = AXIS2_PLACEMENT_3D ( 'NONE', #211, #3, #147 ) ;
#267 = LOCAL_TIME ( 10, 37, 2.000000000000000000, #195 ) ;
#268 = DIRECTION ( 'NONE',  ( 0.0000000000000000000, 1.000000000000000000, 0.0000000000000000000 ) ) ;
#269 = ADVANCED_FACE ( 'NONE', ( #23, #7 ), #239, .T. ) ;
#270 = COORDINATED_UNIVERSAL_TIME_OFFSET ( 1, 0, .AHEAD. ) ;
#271 = ORIENTED_EDGE ( 'NONE', *, *, #130, .F. ) ;
#272 = DIRECTION ( 'NONE',  ( 0.0000000000000000000, 0.0000000000000000000, 1.000000000000000000 ) ) ;
#273 = ADVANCED_FACE ( 'NONE', ( #205, #116 ), #121, .T. ) ;
#274 = PERSON_AND_ORGANIZATION ( #64, #122 ) ;
#275 = ORIENTED_EDGE ( 'NONE', *, *, #287, .T. ) ;
#276 = COORDINATED_UNIVERSAL_TIME_OFFSET ( 1, 0, .AHEAD. ) ;
#277 = ORIENTED_EDGE ( 'NONE', *, *, #238, .F. ) ;
#278 = AXIS2_PLACEMENT_3D ( 'NONE', #112, #231, #256 ) ;
#279 =( GEOMETRIC_REPRESENTATION_CONTEXT ( 3 ) GLOBAL_UNCERTAINTY_ASSIGNED_CONTEXT ( ( #117 ) ) GLOBAL_UNIT_ASSIGNED_CONTEXT ( ( #155, #169, #149 ) ) REPRESENTATION_CONTEXT ( 'NONE', 'WORKASPACE' ) );
#280 = ADVANCED_FACE ( 'NONE', ( #43 ), #240, .T. ) ;
#281 = EDGE_LOOP ( 'NONE', ( #87 ) ) ;
#282 = CARTESIAN_POINT ( 'NONE',  ( 8.728703347107833388E-14, -3.061616997868383831E-15, 25.00000000000000000 ) ) ;
#283 = FACE_BOUND ( 'NONE', #225, .T. ) ;
#284 = PRODUCT_RELATED_PRODUCT_CATEGORY ( 'detail', '', ( #206 ) ) ;
#285 = PLANE ( 'NONE',  #209 ) ;
#286 = VERTEX_POINT ( 'NONE', #144 ) ;
#287 = EDGE_CURVE ( 'NONE', #125, #125, #228, .T. ) ;
#288 = VERTEX_POINT ( 'NONE', #219 ) ;
#289 = CARTESIAN_POINT ( 'NONE',  ( 8.849961221477468513E-14, -3.104148534859897150E-15, 25.34729635533384240 ) ) ;
#290 = DIRECTION ( 'NONE',  ( -3.491481338843133355E-15, 1.224646799147353454E-16, -1.000000000000000000 ) ) ;
#291 = AXIS2_PLACEMENT_3D ( 'NONE', #282, #115, #258 ) ;
#292 = APPROVAL_DATE_TIME ( #28, #84 ) ;
#293 = CALENDAR_DATE ( 2021, 30, 11 ) ;
#294 = SECURITY_CLASSIFICATION_LEVEL ( 'unclassified' ) ;
#295 = EDGE_CURVE ( 'NONE', #73, #73, #72, .T. ) ;
#296 = AXIS2_PLACEMENT_3D ( 'NONE', #38, #68, #145 ) ;
#297 = ORIENTED_EDGE ( 'NONE', *, *, #142, .T. ) ;
#298 = PERSON_AND_ORGANIZATION ( #64, #122 ) ;
#299 = APPROVAL_DATE_TIME ( #180, #163 ) ;
#300 = DIRECTION ( 'NONE',  ( -4.275831445896959482E-31, -1.000000000000000000, -1.224646799147353454E-16 ) ) ;
#301 = DIRECTION ( 'NONE',  ( 4.275831445896959482E-31, 1.000000000000000000, 1.224646799147353454E-16 ) ) ;
#302 = PLANE ( 'NONE',  #22 ) ;
#303 = DIRECTION ( 'NONE',  ( -4.275831445896959482E-31, -1.000000000000000000, -1.224646799147353454E-16 ) ) ;
ENDSEC;
END-ISO-10303-21;
