ISO-10303-21;
HEADER;
FILE_DESCRIPTION (( 'STEP AP203' ),
    '1' );
FILE_NAME ('991141.step',
    '2021-11-30T08:32:54',
    ( '' ),
    ( '' ),
    'SwSTEP 2.0',
    'SolidWorks 2019',
    '' );
FILE_SCHEMA (( 'CONFIG_CONTROL_DESIGN' ));
ENDSEC;

DATA;
#1 = ORIENTED_EDGE ( 'NONE', *, *, #239, .T. ) ;
#2 = AXIS2_PLACEMENT_3D ( 'NONE', #68, #284, #256 ) ;
#3 = ADVANCED_FACE ( 'NONE', ( #50 ), #303, .F. ) ;
#4 = DIRECTION ( 'NONE',  ( 4.275831445896958607E-31, 1.000000000000000000, 1.224646799147353207E-16 ) ) ;
#5 = DIRECTION ( 'NONE',  ( 0.0000000000000000000, -1.000000000000000000, 0.0000000000000000000 ) ) ;
#6 = EDGE_CURVE ( 'NONE', #55, #55, #182, .T. ) ;
#7 = VERTEX_POINT ( 'NONE', #76 ) ;
#8 = LOCAL_TIME ( 9, 32, 54.00000000000000000, #63 ) ;
#9 = DIRECTION ( 'NONE',  ( 4.275831445896958607E-31, 1.000000000000000000, 1.224646799147353207E-16 ) ) ;
#10 = VERTEX_POINT ( 'NONE', #172 ) ;
#11 = MECHANICAL_CONTEXT ( 'NONE', #252, 'mechanical' ) ;
#12 = PERSON_AND_ORGANIZATION_ROLE ( 'design_owner' ) ;
#13 = AXIS2_PLACEMENT_3D ( 'NONE', #220, #224, #4 ) ;
#14 = ADVANCED_FACE ( 'NONE', ( #236, #93 ), #61, .F. ) ;
#15 = CARTESIAN_POINT ( 'NONE',  ( 2.444036937190193349E-14, 0.8334999999999979092, 7.000000000000000000 ) ) ;
#16 = EDGE_LOOP ( 'NONE', ( #113 ) ) ;
#17 = DATE_AND_TIME ( #178, #88 ) ;
#18 = CARTESIAN_POINT ( 'NONE',  ( 5.586370142149013368E-14, 0.7299999999999979838, 16.00000000000000000 ) ) ;
#19 = CLOSED_SHELL ( 'NONE', ( #3, #281, #168, #14, #298, #140, #44, #64 ) ) ;
#20 = DIRECTION ( 'NONE',  ( 0.0000000000000000000, 1.000000000000000000, 0.0000000000000000000 ) ) ;
#21 = CARTESIAN_POINT ( 'NONE',  ( 2.444036937190193349E-14, -8.572527594031473190E-16, 7.000000000000000000 ) ) ;
#22 = EDGE_LOOP ( 'NONE', ( #143 ) ) ;
#23 = AXIS2_PLACEMENT_3D ( 'NONE', #215, #144, #301 ) ;
#24 = FACE_OUTER_BOUND ( 'NONE', #296, .T. ) ;
#25 = CC_DESIGN_PERSON_AND_ORGANIZATION_ASSIGNMENT ( #228, #114, ( #212 ) ) ;
#26 = DIRECTION ( 'NONE',  ( -3.491481338843133355E-15, 1.224646799147353207E-16, -1.000000000000000000 ) ) ;
#27 = FACE_OUTER_BOUND ( 'NONE', #238, .T. ) ;
#28 = CIRCLE ( 'NONE', #86, 0.8334999999999979092 ) ;
#29 = DIRECTION ( 'NONE',  ( 4.621307605008375962E-31, 1.000000000000000000, 1.300782450492510081E-16 ) ) ;
#30 = CARTESIAN_POINT ( 'NONE',  ( 2.444036937190193349E-14, -8.572527594031473190E-16, 7.000000000000000000 ) ) ;
#31 = DIRECTION ( 'NONE',  ( -3.491481338843133355E-15, 1.224646799147353207E-16, -1.000000000000000000 ) ) ;
#32 = EDGE_CURVE ( 'NONE', #243, #243, #177, .T. ) ;
#33 = APPROVAL_PERSON_ORGANIZATION ( #274, #287, #292 ) ;
#34 = CARTESIAN_POINT ( 'NONE',  ( 8.728703347107833388E-16, 0.8334999999999979092, 0.2500000000000000000 ) ) ;
#35 = CC_DESIGN_PERSON_AND_ORGANIZATION_ASSIGNMENT ( #108, #12, ( #211 ) ) ;
#36 = DIRECTION ( 'NONE',  ( 0.0000000000000000000, 0.0000000000000000000, 1.000000000000000000 ) ) ;
#37 = PERSON_AND_ORGANIZATION ( #245, #122 ) ;
#38 = CALENDAR_DATE ( 2021, 30, 11 ) ;
#39 = APPROVAL ( #90, 'UNSPECIFIED' ) ;
#40 = DIRECTION ( 'NONE',  ( -3.491481338843133355E-15, 1.224646799147353207E-16, -1.000000000000000000 ) ) ;
#41 = CONICAL_SURFACE ( 'NONE', #99, 0.8334999999999979092, 0.5235987755982891567 ) ;
#42 = AXIS2_PLACEMENT_3D ( 'NONE', #289, #291, #5 ) ;
#43 = ORIENTED_EDGE ( 'NONE', *, *, #174, .F. ) ;
#44 = ADVANCED_FACE ( 'NONE', ( #214, #276 ), #232, .T. ) ;
#45 = DIRECTION ( 'NONE',  ( -3.491481338843133355E-15, 1.224646799147353207E-16, -1.000000000000000000 ) ) ;
#46 = DIRECTION ( 'NONE',  ( -4.275831445896958607E-31, -1.000000000000000000, -1.224646799147353207E-16 ) ) ;
#47 = AXIS2_PLACEMENT_3D ( 'NONE', #152, #149, #150 ) ;
#48 = CC_DESIGN_APPROVAL ( #39, ( #212 ) ) ;
#49 = SHAPE_DEFINITION_REPRESENTATION ( #148, #209 ) ;
#50 = FACE_OUTER_BOUND ( 'NONE', #207, .T. ) ;
#51 = VERTEX_POINT ( 'NONE', #56 ) ;
#52 = FACE_OUTER_BOUND ( 'NONE', #198, .T. ) ;
#53 = AXIS2_PLACEMENT_3D ( 'NONE', #73, #199, #169 ) ;
#54 = CC_DESIGN_SECURITY_CLASSIFICATION ( #212, ( #302 ) ) ;
#55 = VERTEX_POINT ( 'NONE', #57 ) ;
#56 = CARTESIAN_POINT ( 'NONE',  ( 5.707628016518648493E-14, 0.7603844939755777244, 16.34729635533384595 ) ) ;
#57 = CARTESIAN_POINT ( 'NONE',  ( 1.735266225405037467E-13, 1.499999999999995559, 49.70000000000000284 ) ) ;
#58 = CIRCLE ( 'NONE', #270, 0.7299999999999999822 ) ;
#59 = CC_DESIGN_APPROVAL ( #287, ( #257 ) ) ;
#60 = APPLICATION_PROTOCOL_DEFINITION ( 'international standard', 'config_control_design', 1994, #252 ) ;
#61 = TOROIDAL_SURFACE ( 'NONE', #116, 2.730000000000000426, 2.000000000000000888 ) ;
#62 = ORIENTED_EDGE ( 'NONE', *, *, #6, .F. ) ;
#63 = COORDINATED_UNIVERSAL_TIME_OFFSET ( 1, 0, .AHEAD. ) ;
#64 = ADVANCED_FACE ( 'NONE', ( #234 ), #121, .F. ) ;
#65 = ORIENTED_EDGE ( 'NONE', *, *, #106, .F. ) ;
#66 = EDGE_CURVE ( 'NONE', #7, #7, #250, .T. ) ;
#67 = CARTESIAN_POINT ( 'NONE',  ( 1.735266225405037467E-13, -6.086494591762345225E-15, 49.70000000000000284 ) ) ;
#68 = CARTESIAN_POINT ( 'NONE',  ( 2.444036937190193349E-14, 6.250248894243269603E-33, 7.000000000000000000 ) ) ;
#69 = DIRECTION ( 'NONE',  ( 3.491481338843133355E-15, -1.224646799147353207E-16, 1.000000000000000000 ) ) ;
#70 = CIRCLE ( 'NONE', #120, 1.200000000000001732 ) ;
#71 = DIRECTION ( 'NONE',  ( 0.0000000000000000000, 1.000000000000000000, 0.0000000000000000000 ) ) ;
#72 = ADVANCED_FACE ( 'NONE', ( #24 ), #147, .F. ) ;
#73 = CARTESIAN_POINT ( 'NONE',  ( 2.444036937190193349E-14, -8.572527594031473190E-16, 7.000000000000000000 ) ) ;
#74 = FACE_OUTER_BOUND ( 'NONE', #92, .T. ) ;
#75 = APPLICATION_CONTEXT ( 'configuration controlled 3d designs of mechanical parts and assemblies' ) ;
#76 = CARTESIAN_POINT ( 'NONE',  ( 7.172153596680980451E-14, 1.499999999999994005, 20.54186432815763297 ) ) ;
#77 = DESIGN_CONTEXT ( 'detailed design', #75, 'design' ) ;
#78 = EDGE_LOOP ( 'NONE', ( #188 ) ) ;
#79 = CC_DESIGN_PERSON_AND_ORGANIZATION_ASSIGNMENT ( #37, #85, ( #302 ) ) ;
#80 = FACE_BOUND ( 'NONE', #229, .T. ) ;
#81 = DATE_TIME_ROLE ( 'classification_date' ) ;
#82 = MANIFOLD_SOLID_BREP ( 'Corps-Déplacer/Copier1[2]', #109 ) ;
#83 = AXIS2_PLACEMENT_3D ( 'NONE', #21, #40, #282 ) ;
#84 = APPROVAL_PERSON_ORGANIZATION ( #176, #97, #180 ) ;
#85 = PERSON_AND_ORGANIZATION_ROLE ( 'design_supplier' ) ;
#86 = AXIS2_PLACEMENT_3D ( 'NONE', #103, #241, #29 ) ;
#87 = CARTESIAN_POINT ( 'NONE',  ( 0.0000000000000000000, 0.0000000000000000000, 0.0000000000000000000 ) ) ;
#88 = LOCAL_TIME ( 9, 32, 54.00000000000000000, #231 ) ;
#89 = ORIENTED_EDGE ( 'NONE', *, *, #136, .F. ) ;
#90 = APPROVAL_STATUS ( 'not_yet_approved' ) ;
#91 = DIRECTION ( 'NONE',  ( -3.491481338843133355E-15, 1.224646799147353207E-16, -1.000000000000000000 ) ) ;
#92 = EDGE_LOOP ( 'NONE', ( #139 ) ) ;
#93 = FACE_OUTER_BOUND ( 'NONE', #164, .T. ) ;
#94 = ADVANCED_FACE ( 'NONE', ( #118 ), #146, .T. ) ;
#95 = COORDINATED_UNIVERSAL_TIME_OFFSET ( 1, 0, .AHEAD. ) ;
#96 = CARTESIAN_POINT ( 'NONE',  ( 2.506627765991136237E-14, -8.792066668447526579E-16, 7.179267258583377220 ) ) ;
#97 = APPROVAL ( #227, 'UNSPECIFIED' ) ;
#98 = ORIENTED_EDGE ( 'NONE', *, *, #239, .F. ) ;
#99 = AXIS2_PLACEMENT_3D ( 'NONE', #226, #201, #263 ) ;
#100 = DIRECTION ( 'NONE',  ( 4.275831445896958607E-31, 1.000000000000000000, 1.224646799147353207E-16 ) ) ;
#101 = FACE_OUTER_BOUND ( 'NONE', #184, .T. ) ;
#102 = EDGE_CURVE ( 'NONE', #10, #10, #197, .T. ) ;
#103 = CARTESIAN_POINT ( 'NONE',  ( 8.728703347107829444E-16, -3.061616997868381785E-17, 0.2499999999999998890 ) ) ;
#104 = ORIENTED_EDGE ( 'NONE', *, *, #136, .T. ) ;
#105 = DIRECTION ( 'NONE',  ( -3.491481338843133355E-15, 1.224646799147353207E-16, -1.000000000000000000 ) ) ;
#106 = EDGE_CURVE ( 'NONE', #154, #154, #70, .T. ) ;
#107 = DIRECTION ( 'NONE',  ( 0.0000000000000000000, 1.000000000000000000, 0.0000000000000000000 ) ) ;
#108 = PERSON_AND_ORGANIZATION ( #245, #122 ) ;
#109 = CLOSED_SHELL ( 'NONE', ( #72, #124, #218, #94 ) ) ;
#110 = AXIS2_PLACEMENT_3D ( 'NONE', #87, #36, #138 ) ;
#111 = DATE_AND_TIME ( #249, #203 ) ;
#112 =( NAMED_UNIT ( * ) SI_UNIT ( $, .STERADIAN. ) SOLID_ANGLE_UNIT ( ) );
#113 = ORIENTED_EDGE ( 'NONE', *, *, #162, .F. ) ;
#114 = PERSON_AND_ORGANIZATION_ROLE ( 'classification_officer' ) ;
#115 = PRODUCT_RELATED_PRODUCT_CATEGORY ( 'detail', '', ( #211 ) ) ;
#116 = AXIS2_PLACEMENT_3D ( 'NONE', #166, #26, #260 ) ;
#117 = APPROVAL_STATUS ( 'not_yet_approved' ) ;
#118 = FACE_OUTER_BOUND ( 'NONE', #78, .T. ) ;
#119 = CARTESIAN_POINT ( 'NONE',  ( 1.745740669421566678E-13, -6.123233995736766085E-15, 50.00000000000000000 ) ) ;
#120 = AXIS2_PLACEMENT_3D ( 'NONE', #300, #91, #126 ) ;
#121 = PLANE ( 'NONE',  #23 ) ;
#122 = ORGANIZATION ( 'UNSPECIFIED', 'UNSPECIFIED', '' ) ;
#123 = DIRECTION ( 'NONE',  ( -4.275831445896958607E-31, -1.000000000000000000, -1.224646799147353207E-16 ) ) ;
#124 = ADVANCED_FACE ( 'NONE', ( #80, #101 ), #41, .T. ) ;
#125 = EDGE_LOOP ( 'NONE', ( #137 ) ) ;
#126 = DIRECTION ( 'NONE',  ( 0.0000000000000000000, 1.000000000000000000, 0.0000000000000000000 ) ) ;
#127 = CIRCLE ( 'NONE', #53, 0.8334999999999986864 ) ;
#128 = LOCAL_TIME ( 9, 32, 54.00000000000000000, #95 ) ;
#129 = FACE_OUTER_BOUND ( 'NONE', #125, .T. ) ;
#130 = FACE_BOUND ( 'NONE', #22, .T. ) ;
#131 = ORIENTED_EDGE ( 'NONE', *, *, #275, .F. ) ;
#132 = FACE_OUTER_BOUND ( 'NONE', #217, .T. ) ;
#133 = VERTEX_POINT ( 'NONE', #208 ) ;
#134 = PERSON_AND_ORGANIZATION ( #245, #122 ) ;
#135 = PERSON_AND_ORGANIZATION ( #245, #122 ) ;
#136 = EDGE_CURVE ( 'NONE', #51, #51, #157, .T. ) ;
#137 = ORIENTED_EDGE ( 'NONE', *, *, #102, .F. ) ;
#138 = DIRECTION ( 'NONE',  ( 1.000000000000000000, 0.0000000000000000000, 0.0000000000000000000 ) ) ;
#139 = ORIENTED_EDGE ( 'NONE', *, *, #32, .T. ) ;
#140 = ADVANCED_FACE ( 'NONE', ( #132, #52 ), #153, .T. ) ;
#141 = DATE_TIME_ROLE ( 'creation_date' ) ;
#142 = ORIENTED_EDGE ( 'NONE', *, *, #174, .T. ) ;
#143 = ORIENTED_EDGE ( 'NONE', *, *, #102, .T. ) ;
#144 = DIRECTION ( 'NONE',  ( -3.491481338843133355E-15, 1.224646799147353207E-16, -1.000000000000000000 ) ) ;
#145 = AXIS2_PLACEMENT_3D ( 'NONE', #186, #240, #123 ) ;
#146 = PLANE ( 'NONE',  #145 ) ;
#147 = PLANE ( 'NONE',  #277 ) ;
#148 = PRODUCT_DEFINITION_SHAPE ( 'NONE', 'NONE',  #257 ) ;
#149 = DIRECTION ( 'NONE',  ( -3.491481338843133355E-15, 1.224646799147353207E-16, -1.000000000000000000 ) ) ;
#150 = DIRECTION ( 'NONE',  ( 4.275831445896958607E-31, 1.000000000000000000, 1.224646799147353454E-16 ) ) ;
#151 = AXIS2_PLACEMENT_3D ( 'NONE', #119, #45, #71 ) ;
#152 = CARTESIAN_POINT ( 'NONE',  ( 0.0000000000000000000, 0.0000000000000000000, 0.0000000000000000000 ) ) ;
#153 = CYLINDRICAL_SURFACE ( 'NONE', #47, 1.499999999999999112 ) ;
#154 = VERTEX_POINT ( 'NONE', #266 ) ;
#155 = CIRCLE ( 'NONE', #191, 0.6891624327025946961 ) ;
#156 =( NAMED_UNIT ( * ) PLANE_ANGLE_UNIT ( ) SI_UNIT ( $, .RADIAN. ) );
#157 = CIRCLE ( 'NONE', #283, 0.7603844939755796117 ) ;
#158 = PERSON_AND_ORGANIZATION_ROLE ( 'creator' ) ;
#159 = EDGE_LOOP ( 'NONE', ( #89 ) ) ;
#160 = COORDINATED_UNIVERSAL_TIME_OFFSET ( 1, 0, .AHEAD. ) ;
#161 = ORIENTED_EDGE ( 'NONE', *, *, #66, .F. ) ;
#162 = EDGE_CURVE ( 'NONE', #247, #247, #28, .T. ) ;
#163 = EDGE_LOOP ( 'NONE', ( #131 ) ) ;
#164 = EDGE_LOOP ( 'NONE', ( #104 ) ) ;
#165 = AXIS2_PLACEMENT_3D ( 'NONE', #279, #216, #280 ) ;
#166 = CARTESIAN_POINT ( 'NONE',  ( 5.586370142149013368E-14, -2.168404344971008868E-15, 16.00000000000000000 ) ) ;
#167 = CARTESIAN_POINT ( 'NONE',  ( 0.0000000000000000000, 0.0000000000000000000, 0.0000000000000000000 ) ) ;
#168 = ADVANCED_FACE ( 'NONE', ( #27, #129 ), #246, .T. ) ;
#169 = DIRECTION ( 'NONE',  ( 0.0000000000000000000, 1.000000000000000000, 0.0000000000000000000 ) ) ;
#170 = DIRECTION ( 'NONE',  ( -3.491481338843133355E-15, 1.224646799147353207E-16, -1.000000000000000000 ) ) ;
#171 = AXIS2_PLACEMENT_3D ( 'NONE', #30, #290, #242 ) ;
#172 = CARTESIAN_POINT ( 'NONE',  ( 2.506627765991136237E-14, 0.7300000000000002043, 7.179267258583377220 ) ) ;
#173 = EDGE_LOOP ( 'NONE', ( #65 ) ) ;
#174 = EDGE_CURVE ( 'NONE', #133, #133, #155, .T. ) ;
#175 = FACE_OUTER_BOUND ( 'NONE', #163, .T. ) ;
#176 = PERSON_AND_ORGANIZATION ( #245, #122 ) ;
#177 = CIRCLE ( 'NONE', #83, 0.8334999999999986864 ) ;
#178 = CALENDAR_DATE ( 2021, 30, 11 ) ;
#179 = VERTEX_POINT ( 'NONE', #15 ) ;
#180 = APPROVAL_ROLE ( '' ) ;
#181 = EDGE_LOOP ( 'NONE', ( #62 ) ) ;
#182 = CIRCLE ( 'NONE', #264, 1.500000000000001554 ) ;
#183 = DATE_AND_TIME ( #278, #128 ) ;
#184 = EDGE_LOOP ( 'NONE', ( #253 ) ) ;
#185 = APPROVAL_DATE_TIME ( #183, #39 ) ;
#186 = CARTESIAN_POINT ( 'NONE',  ( 2.444036937190193349E-14, 6.250248894243269603E-33, 7.000000000000000000 ) ) ;
#187 = AXIS2_PLACEMENT_3D ( 'NONE', #167, #194, #9 ) ;
#188 = ORIENTED_EDGE ( 'NONE', *, *, #32, .F. ) ;
#189 = EDGE_LOOP ( 'NONE', ( #219 ) ) ;
#190 = ORIENTED_EDGE ( 'NONE', *, *, #66, .T. ) ;
#191 = AXIS2_PLACEMENT_3D ( 'NONE', #265, #31, #100 ) ;
#192 = DIRECTION ( 'NONE',  ( -3.491481338843133355E-15, 1.224646799147353207E-16, -1.000000000000000000 ) ) ;
#193 = CONICAL_SURFACE ( 'NONE', #42, 1.499999999999996669, 0.1745329251994265085 ) ;
#194 = DIRECTION ( 'NONE',  ( -3.491481338843133355E-15, 1.224646799147353207E-16, -1.000000000000000000 ) ) ;
#195 = CARTESIAN_POINT ( 'NONE',  ( 5.707628016518648493E-14, -2.001966415627278844E-15, 16.34729635533384595 ) ) ;
#196 = CARTESIAN_POINT ( 'NONE',  ( 5.586370142149013368E-14, -1.959434878635765131E-15, 16.00000000000000000 ) ) ;
#197 = CIRCLE ( 'NONE', #210, 0.7300000000000010925 ) ;
#198 = EDGE_LOOP ( 'NONE', ( #254 ) ) ;
#199 = DIRECTION ( 'NONE',  ( -3.491481338843133355E-15, 1.224646799147353207E-16, -1.000000000000000000 ) ) ;
#200 = CC_DESIGN_PERSON_AND_ORGANIZATION_ASSIGNMENT ( #135, #295, ( #302 ) ) ;
#201 = DIRECTION ( 'NONE',  ( 3.491481338843133355E-15, -1.224646799147353207E-16, 1.000000000000000000 ) ) ;
#202 = APPLICATION_PROTOCOL_DEFINITION ( 'international standard', 'config_control_design', 1994, #75 ) ;
#203 = LOCAL_TIME ( 9, 32, 54.00000000000000000, #230 ) ;
#204 = APPROVAL_DATE_TIME ( #111, #97 ) ;
#205 = CC_DESIGN_PERSON_AND_ORGANIZATION_ASSIGNMENT ( #134, #158, ( #257 ) ) ;
#206 = DATE_AND_TIME ( #251, #233 ) ;
#207 = EDGE_LOOP ( 'NONE', ( #267 ) ) ;
#208 = CARTESIAN_POINT ( 'NONE',  ( 0.0000000000000000000, 0.6891624327025946961, 0.0000000000000000000 ) ) ;
#209 = ADVANCED_BREP_SHAPE_REPRESENTATION ( '991141', ( #294, #82, #110 ), #225 ) ;
#210 = AXIS2_PLACEMENT_3D ( 'NONE', #96, #192, #20 ) ;
#211 = PRODUCT ( '991141', '991141', '', ( #11 ) ) ;
#212 = SECURITY_CLASSIFICATION ( '', '', #271 ) ;
#213 = DATE_AND_TIME ( #38, #8 ) ;
#214 = FACE_OUTER_BOUND ( 'NONE', #181, .T. ) ;
#215 = CARTESIAN_POINT ( 'NONE',  ( 1.745740669421566678E-13, 8.998558695971067645E-33, 50.00000000000000000 ) ) ;
#216 = DIRECTION ( 'NONE',  ( -3.491481338843133355E-15, 1.224646799147353207E-16, -1.000000000000000000 ) ) ;
#217 = EDGE_LOOP ( 'NONE', ( #161 ) ) ;
#218 = ADVANCED_FACE ( 'NONE', ( #222, #74 ), #285, .T. ) ;
#219 = ORIENTED_EDGE ( 'NONE', *, *, #106, .T. ) ;
#220 = CARTESIAN_POINT ( 'NONE',  ( 0.0000000000000000000, 0.0000000000000000000, 0.0000000000000000000 ) ) ;
#221 = FACE_OUTER_BOUND ( 'NONE', #223, .T. ) ;
#222 = FACE_OUTER_BOUND ( 'NONE', #16, .T. ) ;
#223 = EDGE_LOOP ( 'NONE', ( #190 ) ) ;
#224 = DIRECTION ( 'NONE',  ( -3.491481338843133355E-15, 1.224646799147353207E-16, -1.000000000000000000 ) ) ;
#225 =( GEOMETRIC_REPRESENTATION_CONTEXT ( 3 ) GLOBAL_UNCERTAINTY_ASSIGNED_CONTEXT ( ( #244 ) ) GLOBAL_UNIT_ASSIGNED_CONTEXT ( ( #297, #156, #112 ) ) REPRESENTATION_CONTEXT ( 'NONE', 'WORKASPACE' ) );
#226 = CARTESIAN_POINT ( 'NONE',  ( 8.728703347107829444E-16, -3.061616997868381785E-17, 0.2499999999999998890 ) ) ;
#227 = APPROVAL_STATUS ( 'not_yet_approved' ) ;
#228 = PERSON_AND_ORGANIZATION ( #245, #122 ) ;
#229 = EDGE_LOOP ( 'NONE', ( #43 ) ) ;
#230 = COORDINATED_UNIVERSAL_TIME_OFFSET ( 1, 0, .AHEAD. ) ;
#231 = COORDINATED_UNIVERSAL_TIME_OFFSET ( 1, 0, .AHEAD. ) ;
#232 = CONICAL_SURFACE ( 'NONE', #151, 1.200000000000001732, 0.7853981633974453924 ) ;
#233 = LOCAL_TIME ( 9, 32, 54.00000000000000000, #160 ) ;
#234 = FACE_OUTER_BOUND ( 'NONE', #173, .T. ) ;
#235 = DIRECTION ( 'NONE',  ( -3.491481338843133355E-15, 1.224646799147353207E-16, -1.000000000000000000 ) ) ;
#236 = FACE_OUTER_BOUND ( 'NONE', #299, .T. ) ;
#237 = APPROVAL_ROLE ( '' ) ;
#238 = EDGE_LOOP ( 'NONE', ( #1 ) ) ;
#239 = EDGE_CURVE ( 'NONE', #248, #248, #58, .T. ) ;
#240 = DIRECTION ( 'NONE',  ( 3.491481338843133355E-15, -1.224646799147353207E-16, 1.000000000000000000 ) ) ;
#241 = DIRECTION ( 'NONE',  ( -3.491481338843133355E-15, 1.224646799147353207E-16, -1.000000000000000000 ) ) ;
#242 = DIRECTION ( 'NONE',  ( 0.0000000000000000000, 1.000000000000000000, 0.0000000000000000000 ) ) ;
#243 = VERTEX_POINT ( 'NONE', #262 ) ;
#244 = UNCERTAINTY_MEASURE_WITH_UNIT (LENGTH_MEASURE( 1.000000000000000082E-05 ), #297, 'distance_accuracy_value', 'NONE');
#245 = PERSON ( 'UNSPECIFIED', 'UNSPECIFIED', 'UNSPECIFIED', ('UNSPECIFIED'), ('UNSPECIFIED'), ('UNSPECIFIED') ) ;
#246 = CYLINDRICAL_SURFACE ( 'NONE', #13, 0.7300000000000005373 ) ;
#247 = VERTEX_POINT ( 'NONE', #34 ) ;
#248 = VERTEX_POINT ( 'NONE', #18 ) ;
#249 = CALENDAR_DATE ( 2021, 30, 11 ) ;
#250 = CIRCLE ( 'NONE', #165, 1.499999999999996669 ) ;
#251 = CALENDAR_DATE ( 2021, 30, 11 ) ;
#252 = APPLICATION_CONTEXT ( 'configuration controlled 3d designs of mechanical parts and assemblies' ) ;
#253 = ORIENTED_EDGE ( 'NONE', *, *, #162, .T. ) ;
#254 = ORIENTED_EDGE ( 'NONE', *, *, #6, .T. ) ;
#255 = APPROVAL_PERSON_ORGANIZATION ( #269, #39, #237 ) ;
#256 = DIRECTION ( 'NONE',  ( -4.275831445896958607E-31, -1.000000000000000000, -1.224646799147353207E-16 ) ) ;
#257 = PRODUCT_DEFINITION ( 'UNKNOWN', '', #302, #77 ) ;
#258 = DIRECTION ( 'NONE',  ( 0.0000000000000000000, 1.000000000000000000, 0.0000000000000000000 ) ) ;
#259 = CARTESIAN_POINT ( 'NONE',  ( -1.473371200540300325E-31, 5.167890501443802319E-33, -4.219902836509179147E-17 ) ) ;
#260 = DIRECTION ( 'NONE',  ( 4.275831445896958607E-31, 1.000000000000000000, 1.224646799147353207E-16 ) ) ;
#261 = CC_DESIGN_DATE_AND_TIME_ASSIGNMENT ( #206, #141, ( #257 ) ) ;
#262 = CARTESIAN_POINT ( 'NONE',  ( 2.444036937190193349E-14, 0.8334999999999979092, 7.000000000000000000 ) ) ;
#263 = DIRECTION ( 'NONE',  ( -4.621307605008375962E-31, -1.000000000000000000, -1.300782450492510081E-16 ) ) ;
#264 = AXIS2_PLACEMENT_3D ( 'NONE', #67, #235, #258 ) ;
#265 = CARTESIAN_POINT ( 'NONE',  ( -2.946742401080600651E-31, 1.033578100288760464E-32, -8.439805673018358294E-17 ) ) ;
#266 = CARTESIAN_POINT ( 'NONE',  ( 1.745740669421566678E-13, 1.199999999999995515, 50.00000000000000000 ) ) ;
#267 = ORIENTED_EDGE ( 'NONE', *, *, #275, .T. ) ;
#268 = FACE_BOUND ( 'NONE', #159, .T. ) ;
#269 = PERSON_AND_ORGANIZATION ( #245, #122 ) ;
#270 = AXIS2_PLACEMENT_3D ( 'NONE', #196, #105, #286 ) ;
#271 = SECURITY_CLASSIFICATION_LEVEL ( 'unclassified' ) ;
#272 = APPROVAL_DATE_TIME ( #17, #287 ) ;
#273 = CC_DESIGN_DATE_AND_TIME_ASSIGNMENT ( #213, #81, ( #212 ) ) ;
#274 = PERSON_AND_ORGANIZATION ( #245, #122 ) ;
#275 = EDGE_CURVE ( 'NONE', #179, #179, #127, .T. ) ;
#276 = FACE_BOUND ( 'NONE', #189, .T. ) ;
#277 = AXIS2_PLACEMENT_3D ( 'NONE', #259, #69, #46 ) ;
#278 = CALENDAR_DATE ( 2021, 30, 11 ) ;
#279 = CARTESIAN_POINT ( 'NONE',  ( 7.172153596680980451E-14, -2.515652839799743761E-15, 20.54186432815763297 ) ) ;
#280 = DIRECTION ( 'NONE',  ( 0.0000000000000000000, 1.000000000000000000, 0.0000000000000000000 ) ) ;
#281 = ADVANCED_FACE ( 'NONE', ( #130, #175 ), #288, .T. ) ;
#282 = DIRECTION ( 'NONE',  ( 0.0000000000000000000, 1.000000000000000000, 0.0000000000000000000 ) ) ;
#283 = AXIS2_PLACEMENT_3D ( 'NONE', #195, #170, #107 ) ;
#284 = DIRECTION ( 'NONE',  ( 3.491481338843133355E-15, -1.224646799147353207E-16, 1.000000000000000000 ) ) ;
#285 = CYLINDRICAL_SURFACE ( 'NONE', #187, 0.8334999999999983533 ) ;
#286 = DIRECTION ( 'NONE',  ( 0.0000000000000000000, 1.000000000000000000, 0.0000000000000000000 ) ) ;
#287 = APPROVAL ( #117, 'UNSPECIFIED' ) ;
#288 = CONICAL_SURFACE ( 'NONE', #171, 0.8334999999999986864, 0.5235987755982929315 ) ;
#289 = CARTESIAN_POINT ( 'NONE',  ( 7.172153596680980451E-14, -2.515652839799743761E-15, 20.54186432815763297 ) ) ;
#290 = DIRECTION ( 'NONE',  ( -3.491481338843133355E-15, 1.224646799147353207E-16, -1.000000000000000000 ) ) ;
#291 = DIRECTION ( 'NONE',  ( 3.491481338843133355E-15, -1.224646799147353207E-16, 1.000000000000000000 ) ) ;
#292 = APPROVAL_ROLE ( '' ) ;
#293 = CC_DESIGN_APPROVAL ( #97, ( #302 ) ) ;
#294 = MANIFOLD_SOLID_BREP ( 'Corps-Déplacer/Copier1[1]', #19 ) ;
#295 = PERSON_AND_ORGANIZATION_ROLE ( 'creator' ) ;
#296 = EDGE_LOOP ( 'NONE', ( #142 ) ) ;
#297 =( LENGTH_UNIT ( ) NAMED_UNIT ( * ) SI_UNIT ( .MILLI., .METRE. ) );
#298 = ADVANCED_FACE ( 'NONE', ( #268, #221 ), #193, .T. ) ;
#299 = EDGE_LOOP ( 'NONE', ( #98 ) ) ;
#300 = CARTESIAN_POINT ( 'NONE',  ( 1.745740669421566678E-13, -6.123233995736766085E-15, 50.00000000000000000 ) ) ;
#301 = DIRECTION ( 'NONE',  ( 4.275831445896958607E-31, 1.000000000000000000, 1.224646799147353207E-16 ) ) ;
#302 = PRODUCT_DEFINITION_FORMATION_WITH_SPECIFIED_SOURCE ( 'ANY', '', #211, .NOT_KNOWN. ) ;
#303 = PLANE ( 'NONE',  #2 ) ;
ENDSEC;
END-ISO-10303-21;
