ISO-10303-21;
HEADER;
FILE_DESCRIPTION (( 'STEP AP203' ),
    '1' );
FILE_NAME ('990143.step',
    '2021-11-17T10:45:15',
    ( '' ),
    ( '' ),
    'SwSTEP 2.0',
    'SolidWorks 2019',
    '' );
FILE_SCHEMA (( 'CONFIG_CONTROL_DESIGN' ));
ENDSEC;

DATA;
#1 = CONICAL_SURFACE ( 'NONE', #39, 6.000000000000000000, 0.7853981633974511656 ) ;
#2 = DIRECTION ( 'NONE',  ( -3.491481338843133355E-15, 1.224646799147353207E-16, -1.000000000000000000 ) ) ;
#3 = ADVANCED_FACE ( 'NONE', ( #38 ), #166, .T. ) ;
#4 = DIRECTION ( 'NONE',  ( -4.275831445896958607E-31, -1.000000000000000000, -1.224646799147353207E-16 ) ) ;
#5 = DIRECTION ( 'NONE',  ( -3.491481338843133355E-15, 1.224646799147353207E-16, -1.000000000000000000 ) ) ;
#6 = CARTESIAN_POINT ( 'NONE',  ( 2.880472104545584703E-13, -1.010333609296566392E-14, 82.50000000000000000 ) ) ;
#7 = DIRECTION ( 'NONE',  ( 0.0000000000000000000, 1.000000000000000000, 0.0000000000000000000 ) ) ;
#8 = EDGE_CURVE ( 'NONE', #103, #103, #142, .T. ) ;
#9 = DESIGN_CONTEXT ( 'detailed design', #186, 'design' ) ;
#10 = CALENDAR_DATE ( 2021, 17, 11 ) ;
#11 = PERSON_AND_ORGANIZATION_ROLE ( 'creator' ) ;
#12 = PERSON_AND_ORGANIZATION ( #15, #182 ) ;
#13 = CALENDAR_DATE ( 2021, 17, 11 ) ;
#14 = EDGE_CURVE ( 'NONE', #89, #89, #143, .T. ) ;
#15 = PERSON ( 'UNSPECIFIED', 'UNSPECIFIED', 'UNSPECIFIED', ('UNSPECIFIED'), ('UNSPECIFIED'), ('UNSPECIFIED') ) ;
#16 = LOCAL_TIME ( 11, 45, 15.00000000000000000, #67 ) ;
#17 = ORIENTED_EDGE ( 'NONE', *, *, #221, .F. ) ;
#18 = ORIENTED_EDGE ( 'NONE', *, *, #14, .T. ) ;
#19 = SHAPE_DEFINITION_REPRESENTATION ( #208, #214 ) ;
#20 = ORIENTED_EDGE ( 'NONE', *, *, #74, .T. ) ;
#21 = PRODUCT ( '990143', '990143', '', ( #81 ) ) ;
#22 = AXIS2_PLACEMENT_3D ( 'NONE', #136, #119, #41 ) ;
#23 = CARTESIAN_POINT ( 'NONE',  ( 9.077851480992146724E-14, 5.999999999999996447, 26.00000000000000000 ) ) ;
#24 = FACE_OUTER_BOUND ( 'NONE', #167, .T. ) ;
#25 = FACE_OUTER_BOUND ( 'NONE', #189, .T. ) ;
#26 = DIRECTION ( 'NONE',  ( -4.252335473556634944E-31, -1.000000000000000000, -1.217917285207545432E-16 ) ) ;
#27 = APPROVAL_PERSON_ORGANIZATION ( #31, #128, #165 ) ;
#28 = DIRECTION ( 'NONE',  ( 0.0000000000000000000, 1.000000000000000000, 0.0000000000000000000 ) ) ;
#29 = PERSON_AND_ORGANIZATION_ROLE ( 'classification_officer' ) ;
#30 = ADVANCED_FACE ( 'NONE', ( #46, #25 ), #154, .T. ) ;
#31 = PERSON_AND_ORGANIZATION ( #15, #182 ) ;
#32 = PERSON_AND_ORGANIZATION ( #15, #182 ) ;
#33 = PERSON_AND_ORGANIZATION ( #15, #182 ) ;
#34 = APPROVAL ( #220, 'UNSPECIFIED' ) ;
#35 = AXIS2_PLACEMENT_3D ( 'NONE', #206, #56, #7 ) ;
#36 = AXIS2_PLACEMENT_3D ( 'NONE', #137, #209, #94 ) ;
#37 = ORIENTED_EDGE ( 'NONE', *, *, #74, .F. ) ;
#38 = FACE_OUTER_BOUND ( 'NONE', #113, .T. ) ;
#39 = AXIS2_PLACEMENT_3D ( 'NONE', #45, #90, #216 ) ;
#40 = EDGE_LOOP ( 'NONE', ( #37 ) ) ;
#41 = DIRECTION ( 'NONE',  ( -4.172848212839010723E-31, -1.000000000000000000, -1.174552353525963055E-16 ) ) ;
#42 = AXIS2_PLACEMENT_3D ( 'NONE', #168, #211, #92 ) ;
#43 = CARTESIAN_POINT ( 'NONE',  ( 2.897929511239800811E-13, 4.124339402320093095E-32, 83.00000000000000000 ) ) ;
#44 = VERTEX_POINT ( 'NONE', #222 ) ;
#45 = CARTESIAN_POINT ( 'NONE',  ( 1.396592535537252553E-15, -4.871669140830178771E-17, 0.3999999999999997446 ) ) ;
#46 = FACE_OUTER_BOUND ( 'NONE', #205, .T. ) ;
#47 = AXIS2_PLACEMENT_3D ( 'NONE', #76, #191, #95 ) ;
#48 = MANIFOLD_SOLID_BREP ( 'Corps-Déplacer/Copier1[2]', #173 ) ;
#49 = CALENDAR_DATE ( 2021, 17, 11 ) ;
#50 = DATE_TIME_ROLE ( 'creation_date' ) ;
#51 = MANIFOLD_SOLID_BREP ( 'Corps-Déplacer/Copier1[1]', #156 ) ;
#52 = CONICAL_SURFACE ( 'NONE', #57, 6.000000000000000000, 0.7853981633974482790 ) ;
#53 = DATE_AND_TIME ( #204, #93 ) ;
#54 = ORIENTED_EDGE ( 'NONE', *, *, #8, .T. ) ;
#55 = CC_DESIGN_PERSON_AND_ORGANIZATION_ASSIGNMENT ( #32, #164, ( #21 ) ) ;
#56 = DIRECTION ( 'NONE',  ( -3.491481338843133355E-15, 1.224646799147353207E-16, -1.000000000000000000 ) ) ;
#57 = AXIS2_PLACEMENT_3D ( 'NONE', #106, #194, #64 ) ;
#58 = FACE_OUTER_BOUND ( 'NONE', #207, .T. ) ;
#59 = VERTEX_POINT ( 'NONE', #116 ) ;
#60 = AXIS2_PLACEMENT_3D ( 'NONE', #75, #215, #4 ) ;
#61 = PLANE ( 'NONE',  #118 ) ;
#62 = ADVANCED_FACE ( 'NONE', ( #24, #120 ), #115, .T. ) ;
#63 = FACE_OUTER_BOUND ( 'NONE', #129, .T. ) ;
#64 = DIRECTION ( 'NONE',  ( 0.0000000000000000000, 1.000000000000000000, 0.0000000000000000000 ) ) ;
#65 = APPROVAL_ROLE ( '' ) ;
#66 = CIRCLE ( 'NONE', #127, 5.500000000000000000 ) ;
#67 = COORDINATED_UNIVERSAL_TIME_OFFSET ( 1, 0, .AHEAD. ) ;
#68 = APPROVAL_DATE_TIME ( #223, #34 ) ;
#69 = CC_DESIGN_APPROVAL ( #128, ( #187 ) ) ;
#70 = DIRECTION ( 'NONE',  ( 4.275831445896958607E-31, 1.000000000000000000, 1.224646799147353207E-16 ) ) ;
#71 = DIRECTION ( 'NONE',  ( -3.491481338843133355E-15, 1.224646799147353207E-16, -1.000000000000000000 ) ) ;
#72 = CARTESIAN_POINT ( 'NONE',  ( -4.954426171776984656E-30, -5.599999999999996980, -1.419004053282032568E-15 ) ) ;
#73 = FACE_BOUND ( 'NONE', #84, .T. ) ;
#74 = EDGE_CURVE ( 'NONE', #210, #210, #66, .T. ) ;
#75 = CARTESIAN_POINT ( 'NONE',  ( 9.077851480992146724E-14, 4.499279347985567350E-32, 26.00000000000000000 ) ) ;
#76 = CARTESIAN_POINT ( 'NONE',  ( 9.077851480992146724E-14, 4.499279347985567350E-32, 26.00000000000000000 ) ) ;
#77 = COORDINATED_UNIVERSAL_TIME_OFFSET ( 1, 0, .AHEAD. ) ;
#78 = APPROVAL ( #219, 'UNSPECIFIED' ) ;
#79 = SECURITY_CLASSIFICATION_LEVEL ( 'unclassified' ) ;
#80 = COORDINATED_UNIVERSAL_TIME_OFFSET ( 1, 0, .AHEAD. ) ;
#81 = MECHANICAL_CONTEXT ( 'NONE', #197, 'mechanical' ) ;
#82 = ORIENTED_EDGE ( 'NONE', *, *, #148, .T. ) ;
#83 = CC_DESIGN_DATE_AND_TIME_ASSIGNMENT ( #124, #50, ( #188 ) ) ;
#84 = EDGE_LOOP ( 'NONE', ( #20 ) ) ;
#85 = ORIENTED_EDGE ( 'NONE', *, *, #148, .F. ) ;
#86 = EDGE_CURVE ( 'NONE', #59, #59, #218, .T. ) ;
#87 = ORIENTED_EDGE ( 'NONE', *, *, #86, .T. ) ;
#88 = APPROVAL_PERSON_ORGANIZATION ( #147, #34, #65 ) ;
#89 = VERTEX_POINT ( 'NONE', #72 ) ;
#90 = DIRECTION ( 'NONE',  ( 3.491481338843133355E-15, -1.217917285207545432E-16, 1.000000000000000000 ) ) ;
#91 = ADVANCED_FACE ( 'NONE', ( #174 ), #140, .F. ) ;
#92 = DIRECTION ( 'NONE',  ( 4.275831445896959482E-31, 1.000000000000000000, 1.224646799147353207E-16 ) ) ;
#93 = LOCAL_TIME ( 11, 45, 15.00000000000000000, #80 ) ;
#94 = DIRECTION ( 'NONE',  ( 4.275831445896959482E-31, 1.000000000000000000, 1.224646799147353207E-16 ) ) ;
#95 = DIRECTION ( 'NONE',  ( -4.275831445896958607E-31, -1.000000000000000000, -1.224646799147353207E-16 ) ) ;
#96 = DATE_AND_TIME ( #97, #101 ) ;
#97 = CALENDAR_DATE ( 2021, 17, 11 ) ;
#98 = APPROVAL_STATUS ( 'not_yet_approved' ) ;
#99 = APPLICATION_PROTOCOL_DEFINITION ( 'international standard', 'config_control_design', 1994, #197 ) ;
#100 = ORIENTED_EDGE ( 'NONE', *, *, #14, .F. ) ;
#101 = LOCAL_TIME ( 11, 45, 15.00000000000000000, #77 ) ;
#102 = EDGE_LOOP ( 'NONE', ( #82 ) ) ;
#103 = VERTEX_POINT ( 'NONE', #23 ) ;
#104 = CARTESIAN_POINT ( 'NONE',  ( 2.897929511239800811E-13, 5.499999999999989342, 83.00000000000000000 ) ) ;
#105 = DIRECTION ( 'NONE',  ( -3.491481338843133355E-15, 1.224646799147353207E-16, -1.000000000000000000 ) ) ;
#106 = CARTESIAN_POINT ( 'NONE',  ( 2.880472104545584703E-13, -1.010333609296566392E-14, 82.50000000000000000 ) ) ;
#107 = APPROVAL_PERSON_ORGANIZATION ( #181, #78, #123 ) ;
#108 = CARTESIAN_POINT ( 'NONE',  ( 2.897929511239800811E-13, -1.016456843292303150E-14, 83.00000000000000000 ) ) ;
#109 = PERSON_AND_ORGANIZATION_ROLE ( 'design_supplier' ) ;
#110 = DATE_TIME_ROLE ( 'classification_date' ) ;
#111 =( NAMED_UNIT ( * ) SI_UNIT ( $, .STERADIAN. ) SOLID_ANGLE_UNIT ( ) );
#112 = COORDINATED_UNIVERSAL_TIME_OFFSET ( 1, 0, .AHEAD. ) ;
#113 = EDGE_LOOP ( 'NONE', ( #100 ) ) ;
#114 = EDGE_LOOP ( 'NONE', ( #18 ) ) ;
#115 = CYLINDRICAL_SURFACE ( 'NONE', #42, 6.000000000000000000 ) ;
#116 = CARTESIAN_POINT ( 'NONE',  ( 2.880472104545584703E-13, 5.999999999999989342, 82.50000000000000000 ) ) ;
#117 = ADVANCED_FACE ( 'NONE', ( #193 ), #157, .T. ) ;
#118 = AXIS2_PLACEMENT_3D ( 'NONE', #43, #71, #190 ) ;
#119 = DIRECTION ( 'NONE',  ( 3.491481338843133355E-15, -1.217917285207545432E-16, 1.000000000000000000 ) ) ;
#120 = FACE_OUTER_BOUND ( 'NONE', #184, .T. ) ;
#121 = ADVANCED_FACE ( 'NONE', ( #138, #63 ), #1, .T. ) ;
#122 = CARTESIAN_POINT ( 'NONE',  ( -2.573118306585269788E-30, 8.975689566516589355E-32, -7.369703735658074415E-16 ) ) ;
#123 = APPROVAL_ROLE ( '' ) ;
#124 = DATE_AND_TIME ( #10, #175 ) ;
#125 = CARTESIAN_POINT ( 'NONE',  ( 0.0000000000000000000, 0.0000000000000000000, 0.0000000000000000000 ) ) ;
#126 = ADVANCED_FACE ( 'NONE', ( #73, #58 ), #52, .T. ) ;
#127 = AXIS2_PLACEMENT_3D ( 'NONE', #108, #5, #159 ) ;
#128 = APPROVAL ( #98, 'UNSPECIFIED' ) ;
#129 = EDGE_LOOP ( 'NONE', ( #17 ) ) ;
#130 = ORIENTED_EDGE ( 'NONE', *, *, #221, .T. ) ;
#131 = AXIS2_PLACEMENT_3D ( 'NONE', #122, #172, #26 ) ;
#132 = CC_DESIGN_PERSON_AND_ORGANIZATION_ASSIGNMENT ( #162, #11, ( #146 ) ) ;
#133 = ORIENTED_EDGE ( 'NONE', *, *, #86, .F. ) ;
#134 = CC_DESIGN_SECURITY_CLASSIFICATION ( #187, ( #146 ) ) ;
#135 = CARTESIAN_POINT ( 'NONE',  ( 9.077851480992146724E-14, -3.184081677783118191E-15, 26.00000000000000000 ) ) ;
#136 = CARTESIAN_POINT ( 'NONE',  ( 1.396592535537252553E-15, -4.871669140830178771E-17, 0.3999999999999997446 ) ) ;
#137 = CARTESIAN_POINT ( 'NONE',  ( 0.0000000000000000000, 0.0000000000000000000, 0.0000000000000000000 ) ) ;
#138 = FACE_BOUND ( 'NONE', #114, .T. ) ;
#139 = CC_DESIGN_DATE_AND_TIME_ASSIGNMENT ( #198, #110, ( #187 ) ) ;
#140 = PLANE ( 'NONE',  #47 ) ;
#141 =( LENGTH_UNIT ( ) NAMED_UNIT ( * ) SI_UNIT ( .MILLI., .METRE. ) );
#142 = CIRCLE ( 'NONE', #35, 6.000000000000000000 ) ;
#143 = CIRCLE ( 'NONE', #131, 5.599999999999996980 ) ;
#144 = PERSON_AND_ORGANIZATION_ROLE ( 'creator' ) ;
#145 = AXIS2_PLACEMENT_3D ( 'NONE', #150, #2, #70 ) ;
#146 = PRODUCT_DEFINITION_FORMATION_WITH_SPECIFIED_SOURCE ( 'ANY', '', #21, .NOT_KNOWN. ) ;
#147 = PERSON_AND_ORGANIZATION ( #15, #182 ) ;
#148 = EDGE_CURVE ( 'NONE', #170, #170, #203, .T. ) ;
#149 = AXIS2_PLACEMENT_3D ( 'NONE', #6, #105, #155 ) ;
#150 = CARTESIAN_POINT ( 'NONE',  ( -1.282749433769087757E-30, 4.499279347985572824E-32, -3.673940397442059868E-16 ) ) ;
#151 = EDGE_LOOP ( 'NONE', ( #185 ) ) ;
#152 = AXIS2_PLACEMENT_3D ( 'NONE', #135, #176, #28 ) ;
#153 = CC_DESIGN_PERSON_AND_ORGANIZATION_ASSIGNMENT ( #12, #109, ( #146 ) ) ;
#154 = CYLINDRICAL_SURFACE ( 'NONE', #36, 6.000000000000000000 ) ;
#155 = DIRECTION ( 'NONE',  ( 0.0000000000000000000, 1.000000000000000000, 0.0000000000000000000 ) ) ;
#156 = CLOSED_SHELL ( 'NONE', ( #91, #30, #126, #171 ) ) ;
#157 = PLANE ( 'NONE',  #60 ) ;
#158 = CC_DESIGN_APPROVAL ( #34, ( #188 ) ) ;
#159 = DIRECTION ( 'NONE',  ( 0.0000000000000000000, 1.000000000000000000, 0.0000000000000000000 ) ) ;
#160 = FACE_OUTER_BOUND ( 'NONE', #40, .T. ) ;
#161 = UNCERTAINTY_MEASURE_WITH_UNIT (LENGTH_MEASURE( 1.000000000000000082E-05 ), #141, 'distance_accuracy_value', 'NONE');
#162 = PERSON_AND_ORGANIZATION ( #15, #182 ) ;
#163 =( GEOMETRIC_REPRESENTATION_CONTEXT ( 3 ) GLOBAL_UNCERTAINTY_ASSIGNED_CONTEXT ( ( #161 ) ) GLOBAL_UNIT_ASSIGNED_CONTEXT ( ( #141, #201, #111 ) ) REPRESENTATION_CONTEXT ( 'NONE', 'WORKASPACE' ) );
#164 = PERSON_AND_ORGANIZATION_ROLE ( 'design_owner' ) ;
#165 = APPROVAL_ROLE ( '' ) ;
#166 = PLANE ( 'NONE',  #145 ) ;
#167 = EDGE_LOOP ( 'NONE', ( #54 ) ) ;
#168 = CARTESIAN_POINT ( 'NONE',  ( 0.0000000000000000000, 0.0000000000000000000, 0.0000000000000000000 ) ) ;
#169 = LOCAL_TIME ( 11, 45, 15.00000000000000000, #202 ) ;
#170 = VERTEX_POINT ( 'NONE', #192 ) ;
#171 = ADVANCED_FACE ( 'NONE', ( #160 ), #61, .F. ) ;
#172 = DIRECTION ( 'NONE',  ( 3.491481338843133355E-15, -1.217917285207545432E-16, 1.000000000000000000 ) ) ;
#173 = CLOSED_SHELL ( 'NONE', ( #62, #117, #121, #3 ) ) ;
#174 = FACE_OUTER_BOUND ( 'NONE', #102, .T. ) ;
#175 = LOCAL_TIME ( 11, 45, 15.00000000000000000, #112 ) ;
#176 = DIRECTION ( 'NONE',  ( -3.491481338843133355E-15, 1.224646799147353207E-16, -1.000000000000000000 ) ) ;
#177 = DIRECTION ( 'NONE',  ( 1.000000000000000000, 0.0000000000000000000, 0.0000000000000000000 ) ) ;
#178 = PRODUCT_RELATED_PRODUCT_CATEGORY ( 'detail', '', ( #21 ) ) ;
#179 = PERSON_AND_ORGANIZATION ( #15, #182 ) ;
#180 = APPLICATION_PROTOCOL_DEFINITION ( 'international standard', 'config_control_design', 1994, #186 ) ;
#181 = PERSON_AND_ORGANIZATION ( #15, #182 ) ;
#182 = ORGANIZATION ( 'UNSPECIFIED', 'UNSPECIFIED', '' ) ;
#183 = APPROVAL_DATE_TIME ( #53, #128 ) ;
#184 = EDGE_LOOP ( 'NONE', ( #130 ) ) ;
#185 = ORIENTED_EDGE ( 'NONE', *, *, #8, .F. ) ;
#186 = APPLICATION_CONTEXT ( 'configuration controlled 3d designs of mechanical parts and assemblies' ) ;
#187 = SECURITY_CLASSIFICATION ( '', '', #79 ) ;
#188 = PRODUCT_DEFINITION ( 'UNKNOWN', '', #146, #9 ) ;
#189 = EDGE_LOOP ( 'NONE', ( #85 ) ) ;
#190 = DIRECTION ( 'NONE',  ( 4.275831445896958607E-31, 1.000000000000000000, 1.224646799147353207E-16 ) ) ;
#191 = DIRECTION ( 'NONE',  ( 3.491481338843133355E-15, -1.224646799147353207E-16, 1.000000000000000000 ) ) ;
#192 = CARTESIAN_POINT ( 'NONE',  ( 9.077851480992146724E-14, 5.999999999999996447, 26.00000000000000000 ) ) ;
#193 = FACE_OUTER_BOUND ( 'NONE', #151, .T. ) ;
#194 = DIRECTION ( 'NONE',  ( -3.491481338843133355E-15, 1.224646799147353207E-16, -1.000000000000000000 ) ) ;
#195 = CIRCLE ( 'NONE', #22, 6.000000000000000000 ) ;
#196 = APPROVAL_DATE_TIME ( #96, #78 ) ;
#197 = APPLICATION_CONTEXT ( 'configuration controlled 3d designs of mechanical parts and assemblies' ) ;
#198 = DATE_AND_TIME ( #13, #16 ) ;
#199 = AXIS2_PLACEMENT_3D ( 'NONE', #125, #217, #177 ) ;
#200 = CC_DESIGN_PERSON_AND_ORGANIZATION_ASSIGNMENT ( #179, #29, ( #187 ) ) ;
#201 =( NAMED_UNIT ( * ) PLANE_ANGLE_UNIT ( ) SI_UNIT ( $, .RADIAN. ) );
#202 = COORDINATED_UNIVERSAL_TIME_OFFSET ( 1, 0, .AHEAD. ) ;
#203 = CIRCLE ( 'NONE', #152, 6.000000000000000000 ) ;
#204 = CALENDAR_DATE ( 2021, 17, 11 ) ;
#205 = EDGE_LOOP ( 'NONE', ( #87 ) ) ;
#206 = CARTESIAN_POINT ( 'NONE',  ( 9.077851480992146724E-14, -3.184081677783118191E-15, 26.00000000000000000 ) ) ;
#207 = EDGE_LOOP ( 'NONE', ( #133 ) ) ;
#208 = PRODUCT_DEFINITION_SHAPE ( 'NONE', 'NONE',  #188 ) ;
#209 = DIRECTION ( 'NONE',  ( -3.491481338843133355E-15, 1.224646799147353207E-16, -1.000000000000000000 ) ) ;
#210 = VERTEX_POINT ( 'NONE', #104 ) ;
#211 = DIRECTION ( 'NONE',  ( -3.491481338843133355E-15, 1.224646799147353207E-16, -1.000000000000000000 ) ) ;
#212 = CC_DESIGN_APPROVAL ( #78, ( #146 ) ) ;
#213 = CC_DESIGN_PERSON_AND_ORGANIZATION_ASSIGNMENT ( #33, #144, ( #188 ) ) ;
#214 = ADVANCED_BREP_SHAPE_REPRESENTATION ( '990143', ( #51, #48, #199 ), #163 ) ;
#215 = DIRECTION ( 'NONE',  ( 3.491481338843133355E-15, -1.224646799147353207E-16, 1.000000000000000000 ) ) ;
#216 = DIRECTION ( 'NONE',  ( -4.172848212839010723E-31, -1.000000000000000000, -1.174552353525963055E-16 ) ) ;
#217 = DIRECTION ( 'NONE',  ( 0.0000000000000000000, 0.0000000000000000000, 1.000000000000000000 ) ) ;
#218 = CIRCLE ( 'NONE', #149, 6.000000000000000000 ) ;
#219 = APPROVAL_STATUS ( 'not_yet_approved' ) ;
#220 = APPROVAL_STATUS ( 'not_yet_approved' ) ;
#221 = EDGE_CURVE ( 'NONE', #44, #44, #195, .T. ) ;
#222 = CARTESIAN_POINT ( 'NONE',  ( 1.396592535537249989E-15, -6.000000000000000000, 0.3999999999999990230 ) ) ;
#223 = DATE_AND_TIME ( #49, #169 ) ;
ENDSEC;
END-ISO-10303-21;
