ISO-10303-21;
HEADER;
FILE_DESCRIPTION (( 'STEP AP203' ),
    '1' );
FILE_NAME ('99.step',
    '2021-10-06T11:26:43',
    ( '' ),
    ( '' ),
    'SwSTEP 2.0',
    'SolidWorks 2019',
    '' );
FILE_SCHEMA (( 'CONFIG_CONTROL_DESIGN' ));
ENDSEC;

DATA;
#1 = EDGE_LOOP ( 'NONE', ( #18 ) ) ;
#2 = CONICAL_SURFACE ( 'NONE', #72, 0.3499999999999999778, 0.7853981633974339571 ) ;
#3 = EDGE_LOOP ( 'NONE', ( #159 ) ) ;
#4 = DIRECTION ( 'NONE',  ( -3.491481338843133355E-15, 1.224646799147353207E-16, -1.000000000000000000 ) ) ;
#5 = FACE_OUTER_BOUND ( 'NONE', #143, .T. ) ;
#6 = DIRECTION ( 'NONE',  ( 0.0000000000000000000, 1.000000000000000000, 0.0000000000000000000 ) ) ;
#7 = CARTESIAN_POINT ( 'NONE',  ( 5.586370142149013368E-14, -1.959434878635765131E-15, 16.00000000000000000 ) ) ;
#8 = AXIS2_PLACEMENT_3D ( 'NONE', #99, #63, #80 ) ;
#9 = PLANE ( 'NONE',  #126 ) ;
#10 = PERSON_AND_ORGANIZATION ( #64, #92 ) ;
#11 = CALENDAR_DATE ( 2021, 6, 10 ) ;
#12 = AXIS2_PLACEMENT_3D ( 'NONE', #145, #194, #68 ) ;
#13 = PERSON_AND_ORGANIZATION ( #64, #92 ) ;
#14 = CC_DESIGN_PERSON_AND_ORGANIZATION_ASSIGNMENT ( #109, #199, ( #167 ) ) ;
#15 = DIRECTION ( 'NONE',  ( 1.000000000000000000, 0.0000000000000000000, 0.0000000000000000000 ) ) ;
#16 = EDGE_CURVE ( 'NONE', #102, #102, #111, .T. ) ;
#17 = EDGE_LOOP ( 'NONE', ( #114 ) ) ;
#18 = ORIENTED_EDGE ( 'NONE', *, *, #173, .F. ) ;
#19 = PRODUCT_RELATED_PRODUCT_CATEGORY ( 'detail', '', ( #193 ) ) ;
#20 = FACE_OUTER_BOUND ( 'NONE', #3, .T. ) ;
#21 = CARTESIAN_POINT ( 'NONE',  ( 1.323271427421547605E-13, -4.641411368768468584E-15, 37.89999999999999858 ) ) ;
#22 = CC_DESIGN_SECURITY_CLASSIFICATION ( #135, ( #167 ) ) ;
#23 = DIRECTION ( 'NONE',  ( -3.491481338843133355E-15, 1.224646799147353207E-16, -1.000000000000000000 ) ) ;
#24 = VERTEX_POINT ( 'NONE', #83 ) ;
#25 = FACE_OUTER_BOUND ( 'NONE', #129, .T. ) ;
#26 = DATE_AND_TIME ( #11, #189 ) ;
#27 = COORDINATED_UNIVERSAL_TIME_OFFSET ( 1, 0, .AHEAD. ) ;
#28 = PRODUCT_DEFINITION_SHAPE ( 'NONE', 'NONE',  #198 ) ;
#29 = COORDINATED_UNIVERSAL_TIME_OFFSET ( 1, 0, .AHEAD. ) ;
#30 = APPLICATION_PROTOCOL_DEFINITION ( 'international standard', 'config_control_design', 1994, #154 ) ;
#31 = EDGE_CURVE ( 'NONE', #24, #24, #108, .T. ) ;
#32 = APPROVAL_ROLE ( '' ) ;
#33 = DESIGN_CONTEXT ( 'detailed design', #154, 'design' ) ;
#34 = ORIENTED_EDGE ( 'NONE', *, *, #184, .T. ) ;
#35 = AXIS2_PLACEMENT_3D ( 'NONE', #134, #40, #163 ) ;
#36 = DIRECTION ( 'NONE',  ( 0.0000000000000000000, 1.000000000000000000, 0.0000000000000000000 ) ) ;
#37 = EDGE_CURVE ( 'NONE', #65, #65, #89, .T. ) ;
#38 = DIRECTION ( 'NONE',  ( -4.279844320860568687E-31, -1.000000000000000000, -1.204669080539461916E-16 ) ) ;
#39 = APPROVAL_PERSON_ORGANIZATION ( #120, #195, #138 ) ;
#40 = DIRECTION ( 'NONE',  ( 3.491481338843133355E-15, -1.224646799147353207E-16, 1.000000000000000000 ) ) ;
#41 = DIRECTION ( 'NONE',  ( -3.491481338843133355E-15, 1.224646799147353207E-16, -1.000000000000000000 ) ) ;
#42 = PERSON_AND_ORGANIZATION_ROLE ( 'design_owner' ) ;
#43 = APPROVAL_STATUS ( 'not_yet_approved' ) ;
#44 = CALENDAR_DATE ( 2021, 6, 10 ) ;
#45 = APPROVAL_STATUS ( 'not_yet_approved' ) ;
#46 = CC_DESIGN_APPROVAL ( #195, ( #198 ) ) ;
#47 = APPROVAL ( #43, 'UNSPECIFIED' ) ;
#48 = CARTESIAN_POINT ( 'NONE',  ( 1.326762908760390423E-13, -4.653657836759941941E-15, 38.00000000000000000 ) ) ;
#49 = DIRECTION ( 'NONE',  ( 4.275831445896958607E-31, 1.000000000000000000, 1.224646799147353207E-16 ) ) ;
#50 = CARTESIAN_POINT ( 'NONE',  ( 7.326470189735212994E-16, -2.569779814398384453E-17, 0.2098384461697499481 ) ) ;
#51 = CIRCLE ( 'NONE', #130, 0.4499999999999972911 ) ;
#52 = VERTEX_POINT ( 'NONE', #103 ) ;
#53 = APPROVAL ( #45, 'UNSPECIFIED' ) ;
#54 = CARTESIAN_POINT ( 'NONE',  ( 5.586370142149013368E-14, 0.4499999999999953482, 16.00000000000000000 ) ) ;
#55 = PERSON_AND_ORGANIZATION_ROLE ( 'creator' ) ;
#56 = CLOSED_SHELL ( 'NONE', ( #190, #124, #110 ) ) ;
#57 = CARTESIAN_POINT ( 'NONE',  ( 0.0000000000000000000, 0.0000000000000000000, 0.0000000000000000000 ) ) ;
#58 = ADVANCED_FACE ( 'NONE', ( #25, #98 ), #2, .T. ) ;
#59 = DATE_AND_TIME ( #152, #156 ) ;
#60 = CC_DESIGN_APPROVAL ( #53, ( #135 ) ) ;
#61 = DIRECTION ( 'NONE',  ( -3.491481338843133355E-15, 1.224646799147353207E-16, -1.000000000000000000 ) ) ;
#62 = PLANE ( 'NONE',  #35 ) ;
#63 = DIRECTION ( 'NONE',  ( -3.491481338843133355E-15, 1.224646799147353207E-16, -1.000000000000000000 ) ) ;
#64 = PERSON ( 'UNSPECIFIED', 'UNSPECIFIED', 'UNSPECIFIED', ('UNSPECIFIED'), ('UNSPECIFIED'), ('UNSPECIFIED') ) ;
#65 = VERTEX_POINT ( 'NONE', #196 ) ;
#66 = AXIS2_PLACEMENT_3D ( 'NONE', #57, #185, #15 ) ;
#67 = ADVANCED_FACE ( 'NONE', ( #20 ), #146, .F. ) ;
#68 = DIRECTION ( 'NONE',  ( 4.275831445896959482E-31, 1.000000000000000000, 1.224646799147353207E-16 ) ) ;
#69 =( LENGTH_UNIT ( ) NAMED_UNIT ( * ) SI_UNIT ( .MILLI., .METRE. ) );
#70 = APPROVAL_STATUS ( 'not_yet_approved' ) ;
#71 = CC_DESIGN_PERSON_AND_ORGANIZATION_ASSIGNMENT ( #90, #55, ( #198 ) ) ;
#72 = AXIS2_PLACEMENT_3D ( 'NONE', #160, #61, #6 ) ;
#73 = PERSON_AND_ORGANIZATION ( #64, #92 ) ;
#74 = COORDINATED_UNIVERSAL_TIME_OFFSET ( 1, 0, .AHEAD. ) ;
#75 = APPROVAL_PERSON_ORGANIZATION ( #13, #47, #123 ) ;
#76 = ORIENTED_EDGE ( 'NONE', *, *, #173, .T. ) ;
#77 = EDGE_LOOP ( 'NONE', ( #76 ) ) ;
#78 = ORIENTED_EDGE ( 'NONE', *, *, #184, .F. ) ;
#79 = CARTESIAN_POINT ( 'NONE',  ( 5.586370142149013368E-14, 3.374459510989129669E-33, 16.00000000000000000 ) ) ;
#80 = DIRECTION ( 'NONE',  ( 4.275831445896958607E-31, 1.000000000000000000, 1.224646799147353207E-16 ) ) ;
#81 = AXIS2_PLACEMENT_3D ( 'NONE', #50, #176, #38 ) ;
#82 = DIRECTION ( 'NONE',  ( -3.491481338843133355E-15, 1.224646799147353207E-16, -1.000000000000000000 ) ) ;
#83 = CARTESIAN_POINT ( 'NONE',  ( 5.586370142149013368E-14, 0.4499999999999953482, 16.00000000000000000 ) ) ;
#84 = CC_DESIGN_DATE_AND_TIME_ASSIGNMENT ( #104, #182, ( #198 ) ) ;
#85 = DIRECTION ( 'NONE',  ( 0.0000000000000000000, 1.000000000000000000, 0.0000000000000000000 ) ) ;
#86 = APPROVAL_DATE_TIME ( #26, #47 ) ;
#87 = CC_DESIGN_PERSON_AND_ORGANIZATION_ASSIGNMENT ( #73, #42, ( #193 ) ) ;
#88 = MECHANICAL_CONTEXT ( 'NONE', #171, 'mechanical' ) ;
#89 = CIRCLE ( 'NONE', #183, 0.3499999999999999778 ) ;
#90 = PERSON_AND_ORGANIZATION ( #64, #92 ) ;
#91 = CALENDAR_DATE ( 2021, 6, 10 ) ;
#92 = ORGANIZATION ( 'UNSPECIFIED', 'UNSPECIFIED', '' ) ;
#93 = ORIENTED_EDGE ( 'NONE', *, *, #31, .T. ) ;
#94 = ADVANCED_FACE ( 'NONE', ( #115, #100 ), #148, .T. ) ;
#95 = EDGE_LOOP ( 'NONE', ( #128 ) ) ;
#96 = CLOSED_SHELL ( 'NONE', ( #201, #94, #58, #67 ) ) ;
#97 = EDGE_LOOP ( 'NONE', ( #78 ) ) ;
#98 = FACE_BOUND ( 'NONE', #113, .T. ) ;
#99 = CARTESIAN_POINT ( 'NONE',  ( 0.0000000000000000000, 0.0000000000000000000, 0.0000000000000000000 ) ) ;
#100 = FACE_OUTER_BOUND ( 'NONE', #17, .T. ) ;
#101 = CONICAL_SURFACE ( 'NONE', #81, 0.4499999999999953482, 1.134464013796309123 ) ;
#102 = VERTEX_POINT ( 'NONE', #132 ) ;
#103 = CARTESIAN_POINT ( 'NONE',  ( 7.326470189735214967E-16, 0.4499999999999953482, 0.2098384461697500036 ) ) ;
#104 = DATE_AND_TIME ( #91, #150 ) ;
#105 = UNCERTAINTY_MEASURE_WITH_UNIT (LENGTH_MEASURE( 1.000000000000000082E-05 ), #69, 'distance_accuracy_value', 'NONE');
#106 = PERSON_AND_ORGANIZATION_ROLE ( 'classification_officer' ) ;
#107 = SECURITY_CLASSIFICATION_LEVEL ( 'unclassified' ) ;
#108 = CIRCLE ( 'NONE', #142, 0.4499999999999972911 ) ;
#109 = PERSON_AND_ORGANIZATION ( #64, #92 ) ;
#110 = ADVANCED_FACE ( 'NONE', ( #175 ), #9, .T. ) ;
#111 = CIRCLE ( 'NONE', #117, 0.4500000000000000111 ) ;
#112 = APPROVAL_PERSON_ORGANIZATION ( #125, #53, #32 ) ;
#113 = EDGE_LOOP ( 'NONE', ( #141 ) ) ;
#114 = ORIENTED_EDGE ( 'NONE', *, *, #16, .T. ) ;
#115 = FACE_OUTER_BOUND ( 'NONE', #97, .T. ) ;
#116 = CYLINDRICAL_SURFACE ( 'NONE', #12, 0.4499999999999962919 ) ;
#117 = AXIS2_PLACEMENT_3D ( 'NONE', #21, #131, #36 ) ;
#118 = FACE_OUTER_BOUND ( 'NONE', #203, .T. ) ;
#119 = CARTESIAN_POINT ( 'NONE',  ( 5.586370142149013368E-14, -1.959434878635765131E-15, 16.00000000000000000 ) ) ;
#120 = PERSON_AND_ORGANIZATION ( #64, #92 ) ;
#121 = MANIFOLD_SOLID_BREP ( 'Corps-Déplacer/Copier1[1]', #96 ) ;
#122 = PERSON_AND_ORGANIZATION_ROLE ( 'design_supplier' ) ;
#123 = APPROVAL_ROLE ( '' ) ;
#124 = ADVANCED_FACE ( 'NONE', ( #133, #118 ), #116, .T. ) ;
#125 = PERSON_AND_ORGANIZATION ( #64, #92 ) ;
#126 = AXIS2_PLACEMENT_3D ( 'NONE', #79, #149, #164 ) ;
#127 = AXIS2_PLACEMENT_3D ( 'NONE', #180, #41, #49 ) ;
#128 = ORIENTED_EDGE ( 'NONE', *, *, #31, .F. ) ;
#129 = EDGE_LOOP ( 'NONE', ( #157 ) ) ;
#130 = AXIS2_PLACEMENT_3D ( 'NONE', #7, #4, #191 ) ;
#131 = DIRECTION ( 'NONE',  ( -3.491481338843133355E-15, 1.224646799147353207E-16, -1.000000000000000000 ) ) ;
#132 = CARTESIAN_POINT ( 'NONE',  ( 1.323271427421547605E-13, 0.4499999999999953482, 37.89999999999999858 ) ) ;
#133 = FACE_OUTER_BOUND ( 'NONE', #1, .T. ) ;
#134 = CARTESIAN_POINT ( 'NONE',  ( 5.586370142149013368E-14, 3.374459510989129669E-33, 16.00000000000000000 ) ) ;
#135 = SECURITY_CLASSIFICATION ( '', '', #107 ) ;
#136 = CARTESIAN_POINT ( 'NONE',  ( 7.326470189735212994E-16, -2.569779814398384453E-17, 0.2098384461697499481 ) ) ;
#137 = APPLICATION_PROTOCOL_DEFINITION ( 'international standard', 'config_control_design', 1994, #171 ) ;
#138 = APPROVAL_ROLE ( '' ) ;
#139 =( NAMED_UNIT ( * ) SI_UNIT ( $, .STERADIAN. ) SOLID_ANGLE_UNIT ( ) );
#140 = CALENDAR_DATE ( 2021, 6, 10 ) ;
#141 = ORIENTED_EDGE ( 'NONE', *, *, #37, .T. ) ;
#142 = AXIS2_PLACEMENT_3D ( 'NONE', #119, #23, #147 ) ;
#143 = EDGE_LOOP ( 'NONE', ( #34 ) ) ;
#144 = CC_DESIGN_PERSON_AND_ORGANIZATION_ASSIGNMENT ( #186, #106, ( #135 ) ) ;
#145 = CARTESIAN_POINT ( 'NONE',  ( 0.0000000000000000000, 0.0000000000000000000, 0.0000000000000000000 ) ) ;
#146 = PLANE ( 'NONE',  #127 ) ;
#147 = DIRECTION ( 'NONE',  ( 0.0000000000000000000, 1.000000000000000000, 0.0000000000000000000 ) ) ;
#148 = CYLINDRICAL_SURFACE ( 'NONE', #8, 0.4499999999999986233 ) ;
#149 = DIRECTION ( 'NONE',  ( 3.491481338843133355E-15, -1.224646799147353207E-16, 1.000000000000000000 ) ) ;
#150 = LOCAL_TIME ( 13, 26, 43.00000000000000000, #29 ) ;
#151 = DATE_AND_TIME ( #44, #170 ) ;
#152 = CALENDAR_DATE ( 2021, 6, 10 ) ;
#153 = DATE_TIME_ROLE ( 'classification_date' ) ;
#154 = APPLICATION_CONTEXT ( 'configuration controlled 3d designs of mechanical parts and assemblies' ) ;
#155 = SHAPE_DEFINITION_REPRESENTATION ( #28, #162 ) ;
#156 = LOCAL_TIME ( 13, 26, 43.00000000000000000, #168 ) ;
#157 = ORIENTED_EDGE ( 'NONE', *, *, #16, .F. ) ;
#158 = APPROVAL_DATE_TIME ( #202, #53 ) ;
#159 = ORIENTED_EDGE ( 'NONE', *, *, #37, .F. ) ;
#160 = CARTESIAN_POINT ( 'NONE',  ( 1.326762908760390423E-13, -4.653657836759941941E-15, 38.00000000000000000 ) ) ;
#161 =( GEOMETRIC_REPRESENTATION_CONTEXT ( 3 ) GLOBAL_UNCERTAINTY_ASSIGNED_CONTEXT ( ( #105 ) ) GLOBAL_UNIT_ASSIGNED_CONTEXT ( ( #69, #181, #139 ) ) REPRESENTATION_CONTEXT ( 'NONE', 'WORKASPACE' ) );
#162 = ADVANCED_BREP_SHAPE_REPRESENTATION ( '99', ( #121, #188, #66 ), #161 ) ;
#163 = DIRECTION ( 'NONE',  ( -4.275831445896958607E-31, -1.000000000000000000, -1.224646799147353207E-16 ) ) ;
#164 = DIRECTION ( 'NONE',  ( -4.275831445896958607E-31, -1.000000000000000000, -1.224646799147353207E-16 ) ) ;
#165 = VERTEX_POINT ( 'NONE', #54 ) ;
#166 = CC_DESIGN_DATE_AND_TIME_ASSIGNMENT ( #59, #153, ( #135 ) ) ;
#167 = PRODUCT_DEFINITION_FORMATION_WITH_SPECIFIED_SOURCE ( 'ANY', '', #193, .NOT_KNOWN. ) ;
#168 = COORDINATED_UNIVERSAL_TIME_OFFSET ( 1, 0, .AHEAD. ) ;
#169 = COORDINATED_UNIVERSAL_TIME_OFFSET ( 1, 0, .AHEAD. ) ;
#170 = LOCAL_TIME ( 13, 26, 43.00000000000000000, #169 ) ;
#171 = APPLICATION_CONTEXT ( 'configuration controlled 3d designs of mechanical parts and assemblies' ) ;
#172 = CIRCLE ( 'NONE', #187, 0.4499999999999953482 ) ;
#173 = EDGE_CURVE ( 'NONE', #52, #52, #172, .T. ) ;
#174 = LOCAL_TIME ( 13, 26, 43.00000000000000000, #74 ) ;
#175 = FACE_OUTER_BOUND ( 'NONE', #95, .T. ) ;
#176 = DIRECTION ( 'NONE',  ( 3.491481338843133355E-15, -1.224646799147353207E-16, 1.000000000000000000 ) ) ;
#177 = CC_DESIGN_APPROVAL ( #47, ( #167 ) ) ;
#178 = DIRECTION ( 'NONE',  ( 4.279844320860568687E-31, 1.000000000000000000, 1.204669080539461916E-16 ) ) ;
#179 = CC_DESIGN_PERSON_AND_ORGANIZATION_ASSIGNMENT ( #10, #122, ( #167 ) ) ;
#180 = CARTESIAN_POINT ( 'NONE',  ( 1.326762908760390423E-13, 2.624579619658180680E-33, 38.00000000000000000 ) ) ;
#181 =( NAMED_UNIT ( * ) PLANE_ANGLE_UNIT ( ) SI_UNIT ( $, .RADIAN. ) );
#182 = DATE_TIME_ROLE ( 'creation_date' ) ;
#183 = AXIS2_PLACEMENT_3D ( 'NONE', #48, #82, #85 ) ;
#184 = EDGE_CURVE ( 'NONE', #165, #165, #51, .T. ) ;
#185 = DIRECTION ( 'NONE',  ( 0.0000000000000000000, 0.0000000000000000000, 1.000000000000000000 ) ) ;
#186 = PERSON_AND_ORGANIZATION ( #64, #92 ) ;
#187 = AXIS2_PLACEMENT_3D ( 'NONE', #136, #197, #178 ) ;
#188 = MANIFOLD_SOLID_BREP ( 'Corps-Déplacer/Copier1[2]', #56 ) ;
#189 = LOCAL_TIME ( 13, 26, 43.00000000000000000, #27 ) ;
#190 = ADVANCED_FACE ( 'NONE', ( #192 ), #101, .T. ) ;
#191 = DIRECTION ( 'NONE',  ( 0.0000000000000000000, 1.000000000000000000, 0.0000000000000000000 ) ) ;
#192 = FACE_OUTER_BOUND ( 'NONE', #77, .T. ) ;
#193 = PRODUCT ( '99', '99', '', ( #88 ) ) ;
#194 = DIRECTION ( 'NONE',  ( -3.491481338843133355E-15, 1.224646799147353207E-16, -1.000000000000000000 ) ) ;
#195 = APPROVAL ( #70, 'UNSPECIFIED' ) ;
#196 = CARTESIAN_POINT ( 'NONE',  ( 1.326762908760390423E-13, 0.3499999999999953149, 38.00000000000000000 ) ) ;
#197 = DIRECTION ( 'NONE',  ( -3.491481338843133355E-15, 1.224646799147353207E-16, -1.000000000000000000 ) ) ;
#198 = PRODUCT_DEFINITION ( 'UNKNOWN', '', #167, #33 ) ;
#199 = PERSON_AND_ORGANIZATION_ROLE ( 'creator' ) ;
#200 = APPROVAL_DATE_TIME ( #151, #195 ) ;
#201 = ADVANCED_FACE ( 'NONE', ( #5 ), #62, .F. ) ;
#202 = DATE_AND_TIME ( #140, #174 ) ;
#203 = EDGE_LOOP ( 'NONE', ( #93 ) ) ;
ENDSEC;
END-ISO-10303-21;
