ISO-10303-21;
HEADER;
FILE_DESCRIPTION (( 'STEP AP203' ),
    '1' );
FILE_NAME ('987605.step',
    '2021-11-08T14:12:46',
    ( '' ),
    ( '' ),
    'SwSTEP 2.0',
    'SolidWorks 2019',
    '' );
FILE_SCHEMA (( 'CONFIG_CONTROL_DESIGN' ));
ENDSEC;

DATA;
#1 = EDGE_LOOP ( 'NONE', ( #51 ) ) ;
#2 = LOCAL_TIME ( 15, 12, 46.00000000000000000, #156 ) ;
#3 = PLANE ( 'NONE',  #208 ) ;
#4 = DIRECTION ( 'NONE',  ( -3.491481338843133355E-15, 1.224646799147353454E-16, -1.000000000000000000 ) ) ;
#5 = CARTESIAN_POINT ( 'NONE',  ( 1.396592535537253342E-14, -4.954425587129203357E-16, 4.000000000000000000 ) ) ;
#6 = FACE_OUTER_BOUND ( 'NONE', #205, .T. ) ;
#7 = APPROVAL_STATUS ( 'not_yet_approved' ) ;
#8 = CYLINDRICAL_SURFACE ( 'NONE', #162, 1.399999999999999467 ) ;
#9 = DATE_AND_TIME ( #217, #210 ) ;
#10 = FACE_BOUND ( 'NONE', #165, .T. ) ;
#11 = EDGE_CURVE ( 'NONE', #106, #106, #169, .T. ) ;
#12 = CARTESIAN_POINT ( 'NONE',  ( 1.971793313474839196E-14, -6.994955934697126238E-16, 5.647440504803535433 ) ) ;
#13 = CARTESIAN_POINT ( 'NONE',  ( -1.210879913750398000E-30, -1.399999999999999467, -3.468097910990441660E-16 ) ) ;
#14 = PERSON_AND_ORGANIZATION_ROLE ( 'design_supplier' ) ;
#15 = ORIENTED_EDGE ( 'NONE', *, *, #241, .T. ) ;
#16 = CIRCLE ( 'NONE', #46, 2.000000000000000000 ) ;
#17 = DIRECTION ( 'NONE',  ( 3.491481338843133355E-15, -1.238606396782300839E-16, 1.000000000000000000 ) ) ;
#18 = APPROVAL_DATE_TIME ( #188, #147 ) ;
#19 = AXIS2_PLACEMENT_3D ( 'NONE', #95, #101, #192 ) ;
#20 = PRODUCT_RELATED_PRODUCT_CATEGORY ( 'detail', '', ( #198 ) ) ;
#21 = CARTESIAN_POINT ( 'NONE',  ( 1.222018468595096801E-13, -4.286263797015737285E-15, 35.00000000000000000 ) ) ;
#22 = CARTESIAN_POINT ( 'NONE',  ( -3.206893176761000815E-31, 1.124826709063586741E-32, -9.184907108292241390E-17 ) ) ;
#23 = AXIS2_PLACEMENT_3D ( 'NONE', #230, #176, #155 ) ;
#24 = APPROVAL_PERSON_ORGANIZATION ( #231, #147, #94 ) ;
#25 = FACE_OUTER_BOUND ( 'NONE', #144, .T. ) ;
#26 = VERTEX_POINT ( 'NONE', #86 ) ;
#27 = PERSON_AND_ORGANIZATION ( #243, #69 ) ;
#28 = VERTEX_POINT ( 'NONE', #104 ) ;
#29 = LOCAL_TIME ( 15, 12, 46.00000000000000000, #153 ) ;
#30 = DIRECTION ( 'NONE',  ( 0.0000000000000000000, 1.000000000000000000, 0.0000000000000000000 ) ) ;
#31 = DIRECTION ( 'NONE',  ( -4.275831445896959482E-31, -1.000000000000000000, -1.224646799147353454E-16 ) ) ;
#32 = EDGE_CURVE ( 'NONE', #200, #200, #36, .T. ) ;
#33 = CALENDAR_DATE ( 2021, 8, 11 ) ;
#34 = CIRCLE ( 'NONE', #201, 1.600000000000000089 ) ;
#35 = EDGE_LOOP ( 'NONE', ( #49 ) ) ;
#36 = CIRCLE ( 'NONE', #54, 1.399999999999999467 ) ;
#37 = ADVANCED_FACE ( 'NONE', ( #216 ), #3, .F. ) ;
#38 = FACE_OUTER_BOUND ( 'NONE', #148, .T. ) ;
#39 = PLANE ( 'NONE',  #48 ) ;
#40 = PLANE ( 'NONE',  #115 ) ;
#41 = DIRECTION ( 'NONE',  ( -4.324571120537136967E-31, -1.000000000000000000, -1.238606396782301086E-16 ) ) ;
#42 = SECURITY_CLASSIFICATION_LEVEL ( 'unclassified' ) ;
#43 = AXIS2_PLACEMENT_3D ( 'NONE', #209, #58, #112 ) ;
#44 = CYLINDRICAL_SURFACE ( 'NONE', #132, 1.999999999999998224 ) ;
#45 = DIRECTION ( 'NONE',  ( 3.491481338843133355E-15, -1.238606396782300839E-16, 1.000000000000000000 ) ) ;
#46 = AXIS2_PLACEMENT_3D ( 'NONE', #85, #119, #30 ) ;
#47 = PERSON_AND_ORGANIZATION ( #243, #69 ) ;
#48 = AXIS2_PLACEMENT_3D ( 'NONE', #77, #127, #78 ) ;
#49 = ORIENTED_EDGE ( 'NONE', *, *, #32, .F. ) ;
#50 = ADVANCED_FACE ( 'NONE', ( #114, #97 ), #122, .F. ) ;
#51 = ORIENTED_EDGE ( 'NONE', *, *, #11, .F. ) ;
#52 = FACE_BOUND ( 'NONE', #141, .T. ) ;
#53 = CARTESIAN_POINT ( 'NONE',  ( 1.396592535537253342E-14, -4.954425587129203357E-16, 4.000000000000000000 ) ) ;
#54 = AXIS2_PLACEMENT_3D ( 'NONE', #227, #17, #41 ) ;
#55 = DIRECTION ( 'NONE',  ( -3.491481338843133355E-15, 1.224646799147353454E-16, -1.000000000000000000 ) ) ;
#56 = SHAPE_DEFINITION_REPRESENTATION ( #206, #91 ) ;
#57 = DIRECTION ( 'NONE',  ( 3.491481338843133355E-15, -1.238606396782300839E-16, 1.000000000000000000 ) ) ;
#58 = DIRECTION ( 'NONE',  ( 3.491481338843133355E-15, -1.238606396782300839E-16, 1.000000000000000000 ) ) ;
#59 = DIRECTION ( 'NONE',  ( 1.000000000000000000, 0.0000000000000000000, 0.0000000000000000000 ) ) ;
#60 = CARTESIAN_POINT ( 'NONE',  ( 0.0000000000000000000, 0.0000000000000000000, 0.0000000000000000000 ) ) ;
#61 = VERTEX_POINT ( 'NONE', #220 ) ;
#62 = EDGE_CURVE ( 'NONE', #28, #28, #99, .T. ) ;
#63 = CC_DESIGN_SECURITY_CLASSIFICATION ( #111, ( #116 ) ) ;
#64 = APPLICATION_PROTOCOL_DEFINITION ( 'international standard', 'config_control_design', 1994, #72 ) ;
#65 = PERSON_AND_ORGANIZATION ( #243, #69 ) ;
#66 = EDGE_LOOP ( 'NONE', ( #207 ) ) ;
#67 = AXIS2_PLACEMENT_3D ( 'NONE', #21, #191, #110 ) ;
#68 = EDGE_LOOP ( 'NONE', ( #71 ) ) ;
#69 = ORGANIZATION ( 'UNSPECIFIED', 'UNSPECIFIED', '' ) ;
#70 = ORIENTED_EDGE ( 'NONE', *, *, #32, .T. ) ;
#71 = ORIENTED_EDGE ( 'NONE', *, *, #135, .F. ) ;
#72 = APPLICATION_CONTEXT ( 'configuration controlled 3d designs of mechanical parts and assemblies' ) ;
#73 = ADVANCED_FACE ( 'NONE', ( #175 ), #39, .F. ) ;
#74 = ADVANCED_FACE ( 'NONE', ( #6, #130 ), #8, .T. ) ;
#75 = CIRCLE ( 'NONE', #215, 1.399999999999999467 ) ;
#76 = CARTESIAN_POINT ( 'NONE',  ( 0.0000000000000000000, 0.0000000000000000000, 0.0000000000000000000 ) ) ;
#77 = CARTESIAN_POINT ( 'NONE',  ( 1.396592535537253342E-14, 1.499759782661854871E-32, 4.000000000000000000 ) ) ;
#78 = DIRECTION ( 'NONE',  ( -4.275831445896959482E-31, -1.000000000000000000, -1.224646799147353454E-16 ) ) ;
#79 = CALENDAR_DATE ( 2021, 8, 11 ) ;
#80 = PRODUCT_DEFINITION ( 'UNKNOWN', '', #116, #222 ) ;
#81 = CARTESIAN_POINT ( 'NONE',  ( 1.396592535537253342E-14, 1.499759782661854871E-32, 4.000000000000000000 ) ) ;
#82 = APPROVAL_ROLE ( '' ) ;
#83 = CC_DESIGN_APPROVAL ( #147, ( #111 ) ) ;
#84 = COORDINATED_UNIVERSAL_TIME_OFFSET ( 1, 0, .AHEAD. ) ;
#85 = CARTESIAN_POINT ( 'NONE',  ( 1.208052543239724267E-13, -4.237277925049843857E-15, 34.60000000000000853 ) ) ;
#86 = CARTESIAN_POINT ( 'NONE',  ( 1.222018468595096801E-13, 1.599999999999995648, 35.00000000000000000 ) ) ;
#87 = APPLICATION_CONTEXT ( 'configuration controlled 3d designs of mechanical parts and assemblies' ) ;
#88 = PERSON_AND_ORGANIZATION ( #243, #69 ) ;
#89 = ORIENTED_EDGE ( 'NONE', *, *, #149, .F. ) ;
#90 = CC_DESIGN_APPROVAL ( #238, ( #80 ) ) ;
#91 = ADVANCED_BREP_SHAPE_REPRESENTATION ( '987605', ( #140, #142, #159 ), #100 ) ;
#92 = CC_DESIGN_DATE_AND_TIME_ASSIGNMENT ( #236, #221, ( #80 ) ) ;
#93 = CARTESIAN_POINT ( 'NONE',  ( 1.222018468595096801E-13, -4.286263797015737285E-15, 35.00000000000000000 ) ) ;
#94 = APPROVAL_ROLE ( '' ) ;
#95 = CARTESIAN_POINT ( 'NONE',  ( 1.396592535537253342E-14, -4.336808689942017736E-16, 4.000000000000000000 ) ) ;
#96 = DATE_TIME_ROLE ( 'classification_date' ) ;
#97 = FACE_OUTER_BOUND ( 'NONE', #68, .T. ) ;
#98 = PERSON_AND_ORGANIZATION_ROLE ( 'classification_officer' ) ;
#99 = CIRCLE ( 'NONE', #23, 1.999999999999998668 ) ;
#100 =( GEOMETRIC_REPRESENTATION_CONTEXT ( 3 ) GLOBAL_UNCERTAINTY_ASSIGNED_CONTEXT ( ( #145 ) ) GLOBAL_UNIT_ASSIGNED_CONTEXT ( ( #180, #181, #196 ) ) REPRESENTATION_CONTEXT ( 'NONE', 'WORKASPACE' ) );
#101 = DIRECTION ( 'NONE',  ( 3.491481338843133355E-15, -1.238606396782300839E-16, 1.000000000000000000 ) ) ;
#102 = APPROVAL_STATUS ( 'not_yet_approved' ) ;
#103 = PERSON_AND_ORGANIZATION_ROLE ( 'creator' ) ;
#104 = CARTESIAN_POINT ( 'NONE',  ( 1.971793313474839196E-14, -1.999999999999999556, 5.647440504803535433 ) ) ;
#105 = VERTEX_POINT ( 'NONE', #218 ) ;
#106 = VERTEX_POINT ( 'NONE', #240 ) ;
#107 = APPROVAL_DATE_TIME ( #184, #226 ) ;
#108 = CLOSED_SHELL ( 'NONE', ( #154, #168, #37, #50, #233, #73 ) ) ;
#109 = ORIENTED_EDGE ( 'NONE', *, *, #62, .F. ) ;
#110 = DIRECTION ( 'NONE',  ( 0.0000000000000000000, 1.000000000000000000, 0.0000000000000000000 ) ) ;
#111 = SECURITY_CLASSIFICATION ( '', '', #42 ) ;
#112 = DIRECTION ( 'NONE',  ( 0.0000000000000000000, -1.000000000000000000, 0.0000000000000000000 ) ) ;
#113 = PLANE ( 'NONE',  #235 ) ;
#114 = FACE_OUTER_BOUND ( 'NONE', #171, .T. ) ;
#115 = AXIS2_PLACEMENT_3D ( 'NONE', #81, #157, #234 ) ;
#116 = PRODUCT_DEFINITION_FORMATION_WITH_SPECIFIED_SOURCE ( 'ANY', '', #198, .NOT_KNOWN. ) ;
#117 = CARTESIAN_POINT ( 'NONE',  ( 1.222018468595096801E-13, 1.199807826129480202E-32, 35.00000000000000000 ) ) ;
#118 = APPROVAL_DATE_TIME ( #9, #238 ) ;
#119 = DIRECTION ( 'NONE',  ( -3.491481338843133355E-15, 1.224646799147353454E-16, -1.000000000000000000 ) ) ;
#120 = DIRECTION ( 'NONE',  ( 0.0000000000000000000, 0.0000000000000000000, 1.000000000000000000 ) ) ;
#121 = APPROVAL_STATUS ( 'not_yet_approved' ) ;
#122 = TOROIDAL_SURFACE ( 'NONE', #19, 2.399999999999999023, 0.9999999999999995559 ) ;
#123 = EDGE_LOOP ( 'NONE', ( #89 ) ) ;
#124 = EDGE_LOOP ( 'NONE', ( #187 ) ) ;
#125 = LOCAL_TIME ( 15, 12, 46.00000000000000000, #84 ) ;
#126 = EDGE_LOOP ( 'NONE', ( #15 ) ) ;
#127 = DIRECTION ( 'NONE',  ( 3.491481338843133355E-15, -1.224646799147353454E-16, 1.000000000000000000 ) ) ;
#128 = ADVANCED_FACE ( 'NONE', ( #25 ), #40, .T. ) ;
#129 = DIRECTION ( 'NONE',  ( -4.324571120537136967E-31, -1.000000000000000000, -1.238606396782300839E-16 ) ) ;
#130 = FACE_OUTER_BOUND ( 'NONE', #1, .T. ) ;
#131 = DIRECTION ( 'NONE',  ( 0.0000000000000000000, -1.000000000000000000, 0.0000000000000000000 ) ) ;
#132 = AXIS2_PLACEMENT_3D ( 'NONE', #76, #55, #150 ) ;
#133 = APPLICATION_PROTOCOL_DEFINITION ( 'international standard', 'config_control_design', 1994, #87 ) ;
#134 = VERTEX_POINT ( 'NONE', #136 ) ;
#135 = EDGE_CURVE ( 'NONE', #61, #61, #146, .T. ) ;
#136 = CARTESIAN_POINT ( 'NONE',  ( 1.396592535537253342E-14, -1.399999999999999911, 4.000000000000000000 ) ) ;
#137 = AXIS2_PLACEMENT_3D ( 'NONE', #53, #173, #211 ) ;
#138 = PERSON_AND_ORGANIZATION_ROLE ( 'design_owner' ) ;
#139 = PERSON_AND_ORGANIZATION ( #243, #69 ) ;
#140 = MANIFOLD_SOLID_BREP ( 'Corps-Déplacer/Copier1[1]', #108 ) ;
#141 = EDGE_LOOP ( 'NONE', ( #224 ) ) ;
#142 = MANIFOLD_SOLID_BREP ( 'Corps-Déplacer/Copier1[2]', #166 ) ;
#143 = CONICAL_SURFACE ( 'NONE', #67, 1.600000000000000089, 0.7853981633974512766 ) ;
#144 = EDGE_LOOP ( 'NONE', ( #225 ) ) ;
#145 = UNCERTAINTY_MEASURE_WITH_UNIT (LENGTH_MEASURE( 1.000000000000000082E-05 ), #180, 'distance_accuracy_value', 'NONE');
#146 = CIRCLE ( 'NONE', #43, 1.476120467488710064 ) ;
#147 = APPROVAL ( #7, 'UNSPECIFIED' ) ;
#148 = EDGE_LOOP ( 'NONE', ( #167 ) ) ;
#149 = EDGE_CURVE ( 'NONE', #134, #134, #75, .T. ) ;
#150 = DIRECTION ( 'NONE',  ( 4.275831445896958607E-31, 1.000000000000000000, 1.224646799147353454E-16 ) ) ;
#151 = DIRECTION ( 'NONE',  ( 0.0000000000000000000, 1.000000000000000000, 0.0000000000000000000 ) ) ;
#152 = FACE_OUTER_BOUND ( 'NONE', #35, .T. ) ;
#153 = COORDINATED_UNIVERSAL_TIME_OFFSET ( 1, 0, .AHEAD. ) ;
#154 = ADVANCED_FACE ( 'NONE', ( #213, #172 ), #44, .T. ) ;
#155 = DIRECTION ( 'NONE',  ( 0.0000000000000000000, -1.000000000000000000, 0.0000000000000000000 ) ) ;
#156 = COORDINATED_UNIVERSAL_TIME_OFFSET ( 1, 0, .AHEAD. ) ;
#157 = DIRECTION ( 'NONE',  ( 3.491481338843133355E-15, -1.224646799147353454E-16, 1.000000000000000000 ) ) ;
#158 = CC_DESIGN_PERSON_AND_ORGANIZATION_ASSIGNMENT ( #65, #203, ( #116 ) ) ;
#159 = AXIS2_PLACEMENT_3D ( 'NONE', #60, #120, #59 ) ;
#160 = CALENDAR_DATE ( 2021, 8, 11 ) ;
#161 = DIRECTION ( 'NONE',  ( 3.491481338843133355E-15, -1.224646799147353454E-16, 1.000000000000000000 ) ) ;
#162 = AXIS2_PLACEMENT_3D ( 'NONE', #232, #229, #129 ) ;
#163 = FACE_OUTER_BOUND ( 'NONE', #223, .T. ) ;
#164 = APPROVAL_ROLE ( '' ) ;
#165 = EDGE_LOOP ( 'NONE', ( #194 ) ) ;
#166 = CLOSED_SHELL ( 'NONE', ( #128, #74, #197 ) ) ;
#167 = ORIENTED_EDGE ( 'NONE', *, *, #241, .F. ) ;
#168 = ADVANCED_FACE ( 'NONE', ( #38, #52 ), #143, .T. ) ;
#169 = CIRCLE ( 'NONE', #137, 1.399999999999999467 ) ;
#170 = CONICAL_SURFACE ( 'NONE', #182, 1.999999999999998668, 0.3926990816987177002 ) ;
#171 = EDGE_LOOP ( 'NONE', ( #185 ) ) ;
#172 = FACE_OUTER_BOUND ( 'NONE', #66, .T. ) ;
#173 = DIRECTION ( 'NONE',  ( 3.491481338843133355E-15, -1.238606396782300839E-16, 1.000000000000000000 ) ) ;
#174 = DATE_AND_TIME ( #79, #29 ) ;
#175 = FACE_OUTER_BOUND ( 'NONE', #123, .T. ) ;
#176 = DIRECTION ( 'NONE',  ( 3.491481338843133355E-15, -1.238606396782300839E-16, 1.000000000000000000 ) ) ;
#177 = CALENDAR_DATE ( 2021, 8, 11 ) ;
#178 = COORDINATED_UNIVERSAL_TIME_OFFSET ( 1, 0, .AHEAD. ) ;
#179 = EDGE_CURVE ( 'NONE', #26, #26, #34, .T. ) ;
#180 =( LENGTH_UNIT ( ) NAMED_UNIT ( * ) SI_UNIT ( .MILLI., .METRE. ) );
#181 =( NAMED_UNIT ( * ) PLANE_ANGLE_UNIT ( ) SI_UNIT ( $, .RADIAN. ) );
#182 = AXIS2_PLACEMENT_3D ( 'NONE', #12, #45, #237 ) ;
#183 = CC_DESIGN_PERSON_AND_ORGANIZATION_ASSIGNMENT ( #27, #138, ( #198 ) ) ;
#184 = DATE_AND_TIME ( #33, #189 ) ;
#185 = ORIENTED_EDGE ( 'NONE', *, *, #149, .T. ) ;
#186 = CC_DESIGN_APPROVAL ( #226, ( #116 ) ) ;
#187 = ORIENTED_EDGE ( 'NONE', *, *, #179, .F. ) ;
#188 = DATE_AND_TIME ( #177, #2 ) ;
#189 = LOCAL_TIME ( 15, 12, 46.00000000000000000, #242 ) ;
#190 = DIRECTION ( 'NONE',  ( 4.275831445896959482E-31, 1.000000000000000000, 1.224646799147353454E-16 ) ) ;
#191 = DIRECTION ( 'NONE',  ( -3.491481338843133355E-15, 1.224646799147353454E-16, -1.000000000000000000 ) ) ;
#192 = DIRECTION ( 'NONE',  ( -4.324571120537136967E-31, -1.000000000000000000, -1.238606396782300839E-16 ) ) ;
#193 = CC_DESIGN_PERSON_AND_ORGANIZATION_ASSIGNMENT ( #199, #103, ( #80 ) ) ;
#194 = ORIENTED_EDGE ( 'NONE', *, *, #135, .T. ) ;
#195 = CC_DESIGN_DATE_AND_TIME_ASSIGNMENT ( #174, #96, ( #111 ) ) ;
#196 =( NAMED_UNIT ( * ) SI_UNIT ( $, .STERADIAN. ) SOLID_ANGLE_UNIT ( ) );
#197 = ADVANCED_FACE ( 'NONE', ( #152 ), #113, .F. ) ;
#198 = PRODUCT ( '987605', '987605', '', ( #202 ) ) ;
#199 = PERSON_AND_ORGANIZATION ( #243, #69 ) ;
#200 = VERTEX_POINT ( 'NONE', #13 ) ;
#201 = AXIS2_PLACEMENT_3D ( 'NONE', #93, #4, #151 ) ;
#202 = MECHANICAL_CONTEXT ( 'NONE', #72, 'mechanical' ) ;
#203 = PERSON_AND_ORGANIZATION_ROLE ( 'creator' ) ;
#204 = CC_DESIGN_PERSON_AND_ORGANIZATION_ASSIGNMENT ( #88, #14, ( #116 ) ) ;
#205 = EDGE_LOOP ( 'NONE', ( #70 ) ) ;
#206 = PRODUCT_DEFINITION_SHAPE ( 'NONE', 'NONE',  #80 ) ;
#207 = ORIENTED_EDGE ( 'NONE', *, *, #62, .T. ) ;
#208 = AXIS2_PLACEMENT_3D ( 'NONE', #117, #214, #190 ) ;
#209 = CARTESIAN_POINT ( 'NONE',  ( 1.530205741815965740E-14, -5.428419734399201770E-16, 4.382683432365083398 ) ) ;
#210 = LOCAL_TIME ( 15, 12, 46.00000000000000000, #178 ) ;
#211 = DIRECTION ( 'NONE',  ( 0.0000000000000000000, -1.000000000000000000, 0.0000000000000000000 ) ) ;
#212 = PERSON_AND_ORGANIZATION ( #243, #69 ) ;
#213 = FACE_OUTER_BOUND ( 'NONE', #126, .T. ) ;
#214 = DIRECTION ( 'NONE',  ( -3.491481338843133355E-15, 1.224646799147353454E-16, -1.000000000000000000 ) ) ;
#215 = AXIS2_PLACEMENT_3D ( 'NONE', #5, #57, #131 ) ;
#216 = FACE_OUTER_BOUND ( 'NONE', #124, .T. ) ;
#217 = CALENDAR_DATE ( 2021, 8, 11 ) ;
#218 = CARTESIAN_POINT ( 'NONE',  ( 1.208052543239724267E-13, 1.999999999999995781, 34.60000000000000853 ) ) ;
#219 = APPROVAL_PERSON_ORGANIZATION ( #139, #226, #164 ) ;
#220 = CARTESIAN_POINT ( 'NONE',  ( 1.530205741815965740E-14, -1.476120467488710730, 4.382683432365083398 ) ) ;
#221 = DATE_TIME_ROLE ( 'creation_date' ) ;
#222 = DESIGN_CONTEXT ( 'detailed design', #87, 'design' ) ;
#223 = EDGE_LOOP ( 'NONE', ( #109 ) ) ;
#224 = ORIENTED_EDGE ( 'NONE', *, *, #179, .T. ) ;
#225 = ORIENTED_EDGE ( 'NONE', *, *, #11, .T. ) ;
#226 = APPROVAL ( #121, 'UNSPECIFIED' ) ;
#227 = CARTESIAN_POINT ( 'NONE',  ( -6.054399568751990002E-31, -1.274928110263513559E-33, -1.734048955495220830E-16 ) ) ;
#228 = CC_DESIGN_PERSON_AND_ORGANIZATION_ASSIGNMENT ( #212, #98, ( #111 ) ) ;
#229 = DIRECTION ( 'NONE',  ( 3.491481338843133355E-15, -1.238606396782300839E-16, 1.000000000000000000 ) ) ;
#230 = CARTESIAN_POINT ( 'NONE',  ( 1.971793313474839196E-14, -6.994955934697126238E-16, 5.647440504803535433 ) ) ;
#231 = PERSON_AND_ORGANIZATION ( #243, #69 ) ;
#232 = CARTESIAN_POINT ( 'NONE',  ( -6.413786353522001631E-31, 0.0000000000000000000, -1.836981421658448278E-16 ) ) ;
#233 = ADVANCED_FACE ( 'NONE', ( #10, #163 ), #170, .T. ) ;
#234 = DIRECTION ( 'NONE',  ( -4.275831445896959482E-31, -1.000000000000000000, -1.224646799147353454E-16 ) ) ;
#235 = AXIS2_PLACEMENT_3D ( 'NONE', #22, #161, #31 ) ;
#236 = DATE_AND_TIME ( #160, #125 ) ;
#237 = DIRECTION ( 'NONE',  ( 0.0000000000000000000, -1.000000000000000000, 0.0000000000000000000 ) ) ;
#238 = APPROVAL ( #102, 'UNSPECIFIED' ) ;
#239 = APPROVAL_PERSON_ORGANIZATION ( #47, #238, #82 ) ;
#240 = CARTESIAN_POINT ( 'NONE',  ( 1.396592535537253342E-14, -1.399999999999999911, 4.000000000000000000 ) ) ;
#241 = EDGE_CURVE ( 'NONE', #105, #105, #16, .T. ) ;
#242 = COORDINATED_UNIVERSAL_TIME_OFFSET ( 1, 0, .AHEAD. ) ;
#243 = PERSON ( 'UNSPECIFIED', 'UNSPECIFIED', 'UNSPECIFIED', ('UNSPECIFIED'), ('UNSPECIFIED'), ('UNSPECIFIED') ) ;
ENDSEC;
END-ISO-10303-21;
