ISO-10303-21;
HEADER;
FILE_DESCRIPTION (( 'STEP AP203' ),
    '1' );
FILE_NAME ('987604.step',
    '2021-11-08T14:12:46',
    ( '' ),
    ( '' ),
    'SwSTEP 2.0',
    'SolidWorks 2019',
    '' );
FILE_SCHEMA (( 'CONFIG_CONTROL_DESIGN' ));
ENDSEC;

DATA;
#1 = EDGE_LOOP ( 'NONE', ( #203 ) ) ;
#2 = AXIS2_PLACEMENT_3D ( 'NONE', #226, #95, #51 ) ;
#3 = CARTESIAN_POINT ( 'NONE',  ( 0.0000000000000000000, 0.0000000000000000000, 0.0000000000000000000 ) ) ;
#4 = DIRECTION ( 'NONE',  ( 0.0000000000000000000, -1.000000000000000000, 0.0000000000000000000 ) ) ;
#5 = FACE_OUTER_BOUND ( 'NONE', #242, .T. ) ;
#6 = DIRECTION ( 'NONE',  ( 0.0000000000000000000, -1.000000000000000000, 0.0000000000000000000 ) ) ;
#7 = AXIS2_PLACEMENT_3D ( 'NONE', #3, #16, #58 ) ;
#8 = DIRECTION ( 'NONE',  ( -4.275831445896959482E-31, -1.000000000000000000, -1.224646799147353454E-16 ) ) ;
#9 = PERSON_AND_ORGANIZATION ( #146, #85 ) ;
#10 = EDGE_CURVE ( 'NONE', #158, #158, #15, .T. ) ;
#11 = DIRECTION ( 'NONE',  ( 1.000000000000000000, 0.0000000000000000000, 0.0000000000000000000 ) ) ;
#12 = DIRECTION ( 'NONE',  ( 3.491481338843133355E-15, -1.238606396782300839E-16, 1.000000000000000000 ) ) ;
#13 = PERSON_AND_ORGANIZATION ( #146, #85 ) ;
#14 = ORIENTED_EDGE ( 'NONE', *, *, #202, .T. ) ;
#15 = CIRCLE ( 'NONE', #86, 2.000000000000000000 ) ;
#16 = DIRECTION ( 'NONE',  ( -3.491481338843133355E-15, 1.224646799147353454E-16, -1.000000000000000000 ) ) ;
#17 = APPROVAL_PERSON_ORGANIZATION ( #54, #145, #171 ) ;
#18 = FACE_OUTER_BOUND ( 'NONE', #243, .T. ) ;
#19 = DIRECTION ( 'NONE',  ( 4.275831445896959482E-31, 1.000000000000000000, 1.224646799147353454E-16 ) ) ;
#20 = CALENDAR_DATE ( 2021, 8, 11 ) ;
#21 = DIRECTION ( 'NONE',  ( 3.491481338843133355E-15, -1.238606396782300839E-16, 1.000000000000000000 ) ) ;
#22 = COORDINATED_UNIVERSAL_TIME_OFFSET ( 1, 0, .AHEAD. ) ;
#23 = FACE_OUTER_BOUND ( 'NONE', #142, .T. ) ;
#24 = AXIS2_PLACEMENT_3D ( 'NONE', #212, #116, #4 ) ;
#25 = CALENDAR_DATE ( 2021, 8, 11 ) ;
#26 = CARTESIAN_POINT ( 'NONE',  ( 1.208052543239724267E-13, 1.999999999999995781, 34.60000000000000853 ) ) ;
#27 = AXIS2_PLACEMENT_3D ( 'NONE', #28, #12, #176 ) ;
#28 = CARTESIAN_POINT ( 'NONE',  ( 1.396592535537253342E-14, -4.336808689942017736E-16, 4.000000000000000000 ) ) ;
#29 = AXIS2_PLACEMENT_3D ( 'NONE', #169, #231, #150 ) ;
#30 = FACE_OUTER_BOUND ( 'NONE', #89, .T. ) ;
#31 = VERTEX_POINT ( 'NONE', #197 ) ;
#32 = CC_DESIGN_PERSON_AND_ORGANIZATION_ASSIGNMENT ( #9, #80, ( #63 ) ) ;
#33 = APPROVAL_STATUS ( 'not_yet_approved' ) ;
#34 = ORIENTED_EDGE ( 'NONE', *, *, #10, .T. ) ;
#35 = ORIENTED_EDGE ( 'NONE', *, *, #91, .T. ) ;
#36 = CARTESIAN_POINT ( 'NONE',  ( 1.222018468595096801E-13, -4.286263797015737285E-15, 35.00000000000000000 ) ) ;
#37 = CC_DESIGN_APPROVAL ( #70, ( #63 ) ) ;
#38 = AXIS2_PLACEMENT_3D ( 'NONE', #36, #238, #233 ) ;
#39 = DIRECTION ( 'NONE',  ( -4.275831445896959482E-31, -1.000000000000000000, -1.224646799147353454E-16 ) ) ;
#40 = APPROVAL_STATUS ( 'not_yet_approved' ) ;
#41 = CARTESIAN_POINT ( 'NONE',  ( 1.530205741815965740E-14, -5.428419734399201770E-16, 4.382683432365083398 ) ) ;
#42 = DIRECTION ( 'NONE',  ( 0.0000000000000000000, 1.000000000000000000, 0.0000000000000000000 ) ) ;
#43 = FACE_BOUND ( 'NONE', #221, .T. ) ;
#44 = CIRCLE ( 'NONE', #220, 1.326120467488710597 ) ;
#45 = PERSON_AND_ORGANIZATION ( #146, #85 ) ;
#46 = CARTESIAN_POINT ( 'NONE',  ( 2.098231037489955975E-14, -1.999999999999999556, 6.009572539159506732 ) ) ;
#47 = COORDINATED_UNIVERSAL_TIME_OFFSET ( 1, 0, .AHEAD. ) ;
#48 = EDGE_LOOP ( 'NONE', ( #122 ) ) ;
#49 = ADVANCED_FACE ( 'NONE', ( #56 ), #173, .T. ) ;
#50 = MANIFOLD_SOLID_BREP ( 'Corps-Déplacer/Copier1[2]', #127 ) ;
#51 = DIRECTION ( 'NONE',  ( 0.0000000000000000000, -1.000000000000000000, 0.0000000000000000000 ) ) ;
#52 = ADVANCED_FACE ( 'NONE', ( #43, #189 ), #214, .T. ) ;
#53 = CARTESIAN_POINT ( 'NONE',  ( 2.098231037489955975E-14, -7.443494988930218109E-16, 6.009572539159506732 ) ) ;
#54 = PERSON_AND_ORGANIZATION ( #146, #85 ) ;
#55 = CLOSED_SHELL ( 'NONE', ( #100, #225, #177, #234, #52, #188 ) ) ;
#56 = FACE_OUTER_BOUND ( 'NONE', #125, .T. ) ;
#57 = CARTESIAN_POINT ( 'NONE',  ( 1.396592535537253342E-14, 1.499759782661854871E-32, 4.000000000000000000 ) ) ;
#58 = DIRECTION ( 'NONE',  ( 4.275831445896958607E-31, 1.000000000000000000, 1.224646799147353454E-16 ) ) ;
#59 = DATE_TIME_ROLE ( 'classification_date' ) ;
#60 = CALENDAR_DATE ( 2021, 8, 11 ) ;
#61 = AXIS2_PLACEMENT_3D ( 'NONE', #78, #153, #110 ) ;
#62 = PERSON_AND_ORGANIZATION ( #146, #85 ) ;
#63 = PRODUCT_DEFINITION ( 'UNKNOWN', '', #186, #105 ) ;
#64 = MECHANICAL_CONTEXT ( 'NONE', #200, 'mechanical' ) ;
#65 = PERSON_AND_ORGANIZATION ( #146, #85 ) ;
#66 = EDGE_LOOP ( 'NONE', ( #185 ) ) ;
#67 = LOCAL_TIME ( 15, 12, 46.00000000000000000, #22 ) ;
#68 = EDGE_LOOP ( 'NONE', ( #163 ) ) ;
#69 = ORIENTED_EDGE ( 'NONE', *, *, #202, .F. ) ;
#70 = APPROVAL ( #120, 'UNSPECIFIED' ) ;
#71 = EDGE_LOOP ( 'NONE', ( #204 ) ) ;
#72 = AXIS2_PLACEMENT_3D ( 'NONE', #148, #194, #8 ) ;
#73 = DIRECTION ( 'NONE',  ( 0.0000000000000000000, -1.000000000000000000, 0.0000000000000000000 ) ) ;
#74 = ADVANCED_FACE ( 'NONE', ( #210 ), #75, .F. ) ;
#75 = PLANE ( 'NONE',  #29 ) ;
#76 = APPROVAL ( #33, 'UNSPECIFIED' ) ;
#77 = DIRECTION ( 'NONE',  ( -3.491481338843133355E-15, 1.224646799147353454E-16, -1.000000000000000000 ) ) ;
#78 = CARTESIAN_POINT ( 'NONE',  ( -5.405713900671419238E-31, -3.576146819488565227E-33, -1.548257995977875679E-16 ) ) ;
#79 = DATE_AND_TIME ( #20, #67 ) ;
#80 = PERSON_AND_ORGANIZATION_ROLE ( 'creator' ) ;
#81 = SECURITY_CLASSIFICATION ( '', '', #87 ) ;
#82 = AXIS2_PLACEMENT_3D ( 'NONE', #53, #174, #73 ) ;
#83 = VERTEX_POINT ( 'NONE', #159 ) ;
#84 = CARTESIAN_POINT ( 'NONE',  ( -1.081142780134283848E-30, -1.249999999999999556, -3.096515991955751359E-16 ) ) ;
#85 = ORGANIZATION ( 'UNSPECIFIED', 'UNSPECIFIED', '' ) ;
#86 = AXIS2_PLACEMENT_3D ( 'NONE', #152, #232, #190 ) ;
#87 = SECURITY_CLASSIFICATION_LEVEL ( 'unclassified' ) ;
#88 = ORIENTED_EDGE ( 'NONE', *, *, #155, .T. ) ;
#89 = EDGE_LOOP ( 'NONE', ( #167 ) ) ;
#90 = EDGE_CURVE ( 'NONE', #83, #83, #107, .T. ) ;
#91 = EDGE_CURVE ( 'NONE', #199, #199, #196, .T. ) ;
#92 = AXIS2_PLACEMENT_3D ( 'NONE', #57, #131, #39 ) ;
#93 = FACE_OUTER_BOUND ( 'NONE', #66, .T. ) ;
#94 = ADVANCED_BREP_SHAPE_REPRESENTATION ( '987604', ( #222, #50, #126 ), #109 ) ;
#95 = DIRECTION ( 'NONE',  ( 3.491481338843133355E-15, -1.238606396782300839E-16, 1.000000000000000000 ) ) ;
#96 = PLANE ( 'NONE',  #183 ) ;
#97 = FACE_OUTER_BOUND ( 'NONE', #184, .T. ) ;
#98 = DATE_AND_TIME ( #25, #172 ) ;
#99 = VERTEX_POINT ( 'NONE', #84 ) ;
#100 = ADVANCED_FACE ( 'NONE', ( #23, #18 ), #170, .T. ) ;
#101 = CARTESIAN_POINT ( 'NONE',  ( 1.396592535537253342E-14, -1.250000000000000222, 4.000000000000000000 ) ) ;
#102 = CARTESIAN_POINT ( 'NONE',  ( 0.0000000000000000000, 0.0000000000000000000, 0.0000000000000000000 ) ) ;
#103 =( NAMED_UNIT ( * ) SI_UNIT ( $, .STERADIAN. ) SOLID_ANGLE_UNIT ( ) );
#104 = PERSON_AND_ORGANIZATION_ROLE ( 'creator' ) ;
#105 = DESIGN_CONTEXT ( 'detailed design', #118, 'design' ) ;
#106 = ORIENTED_EDGE ( 'NONE', *, *, #166, .T. ) ;
#107 = CIRCLE ( 'NONE', #24, 1.249999999999999778 ) ;
#108 = FACE_OUTER_BOUND ( 'NONE', #48, .T. ) ;
#109 =( GEOMETRIC_REPRESENTATION_CONTEXT ( 3 ) GLOBAL_UNCERTAINTY_ASSIGNED_CONTEXT ( ( #217 ) ) GLOBAL_UNIT_ASSIGNED_CONTEXT ( ( #236, #240, #103 ) ) REPRESENTATION_CONTEXT ( 'NONE', 'WORKASPACE' ) );
#110 = DIRECTION ( 'NONE',  ( -4.324571120537136967E-31, -1.000000000000000000, -1.238606396782301086E-16 ) ) ;
#111 = SHAPE_DEFINITION_REPRESENTATION ( #157, #94 ) ;
#112 = DIRECTION ( 'NONE',  ( -4.324571120537137843E-31, -1.000000000000000000, -1.238606396782300839E-16 ) ) ;
#113 = CARTESIAN_POINT ( 'NONE',  ( 1.222018468595096801E-13, 1.199807826129480202E-32, 35.00000000000000000 ) ) ;
#114 = DATE_AND_TIME ( #213, #223 ) ;
#115 = AXIS2_PLACEMENT_3D ( 'NONE', #211, #228, #42 ) ;
#116 = DIRECTION ( 'NONE',  ( 3.491481338843133355E-15, -1.238606396782300839E-16, 1.000000000000000000 ) ) ;
#117 = VERTEX_POINT ( 'NONE', #119 ) ;
#118 = APPLICATION_CONTEXT ( 'configuration controlled 3d designs of mechanical parts and assemblies' ) ;
#119 = CARTESIAN_POINT ( 'NONE',  ( 1.530205741815965740E-14, -1.326120467488711263, 4.382683432365083398 ) ) ;
#120 = APPROVAL_STATUS ( 'not_yet_approved' ) ;
#121 = APPROVAL_ROLE ( '' ) ;
#122 = ORIENTED_EDGE ( 'NONE', *, *, #90, .F. ) ;
#123 = CONICAL_SURFACE ( 'NONE', #38, 1.600000000000000089, 0.7853981633974512766 ) ;
#124 = EDGE_LOOP ( 'NONE', ( #164 ) ) ;
#125 = EDGE_LOOP ( 'NONE', ( #35 ) ) ;
#126 = AXIS2_PLACEMENT_3D ( 'NONE', #102, #180, #11 ) ;
#127 = CLOSED_SHELL ( 'NONE', ( #49, #133, #74 ) ) ;
#128 = FACE_OUTER_BOUND ( 'NONE', #124, .T. ) ;
#129 = DIRECTION ( 'NONE',  ( 0.0000000000000000000, -1.000000000000000000, 0.0000000000000000000 ) ) ;
#130 = DIRECTION ( 'NONE',  ( 3.491481338843133355E-15, -1.238606396782300839E-16, 1.000000000000000000 ) ) ;
#131 = DIRECTION ( 'NONE',  ( 3.491481338843133355E-15, -1.224646799147353454E-16, 1.000000000000000000 ) ) ;
#132 = APPROVAL_PERSON_ORGANIZATION ( #216, #70, #139 ) ;
#133 = ADVANCED_FACE ( 'NONE', ( #5, #97 ), #230, .T. ) ;
#134 = CIRCLE ( 'NONE', #61, 1.249999999999999556 ) ;
#135 = DATE_AND_TIME ( #60, #143 ) ;
#136 = EDGE_CURVE ( 'NONE', #31, #31, #224, .T. ) ;
#137 = VERTEX_POINT ( 'NONE', #46 ) ;
#138 = APPLICATION_PROTOCOL_DEFINITION ( 'international standard', 'config_control_design', 1994, #118 ) ;
#139 = APPROVAL_ROLE ( '' ) ;
#140 = PERSON_AND_ORGANIZATION_ROLE ( 'design_supplier' ) ;
#141 = PRODUCT ( '987604', '987604', '', ( #64 ) ) ;
#142 = EDGE_LOOP ( 'NONE', ( #34 ) ) ;
#143 = LOCAL_TIME ( 15, 12, 46.00000000000000000, #156 ) ;
#144 = EDGE_LOOP ( 'NONE', ( #69 ) ) ;
#145 = APPROVAL ( #40, 'UNSPECIFIED' ) ;
#146 = PERSON ( 'UNSPECIFIED', 'UNSPECIFIED', 'UNSPECIFIED', ('UNSPECIFIED'), ('UNSPECIFIED'), ('UNSPECIFIED') ) ;
#147 = CIRCLE ( 'NONE', #82, 1.999999999999998668 ) ;
#148 = CARTESIAN_POINT ( 'NONE',  ( 1.396592535537253342E-14, 1.499759782661854871E-32, 4.000000000000000000 ) ) ;
#149 = CARTESIAN_POINT ( 'NONE',  ( 1.396592535537253342E-14, -4.954425587129203357E-16, 4.000000000000000000 ) ) ;
#150 = DIRECTION ( 'NONE',  ( -4.275831445896959482E-31, -1.000000000000000000, -1.224646799147353454E-16 ) ) ;
#151 = CC_DESIGN_PERSON_AND_ORGANIZATION_ASSIGNMENT ( #62, #160, ( #141 ) ) ;
#152 = CARTESIAN_POINT ( 'NONE',  ( 1.208052543239724267E-13, -4.237277925049843857E-15, 34.60000000000000853 ) ) ;
#153 = DIRECTION ( 'NONE',  ( 3.491481338843133355E-15, -1.238606396782300839E-16, 1.000000000000000000 ) ) ;
#154 = APPROVAL_DATE_TIME ( #79, #145 ) ;
#155 = EDGE_CURVE ( 'NONE', #137, #137, #147, .T. ) ;
#156 = COORDINATED_UNIVERSAL_TIME_OFFSET ( 1, 0, .AHEAD. ) ;
#157 = PRODUCT_DEFINITION_SHAPE ( 'NONE', 'NONE',  #63 ) ;
#158 = VERTEX_POINT ( 'NONE', #26 ) ;
#159 = CARTESIAN_POINT ( 'NONE',  ( 1.396592535537253342E-14, -1.250000000000000222, 4.000000000000000000 ) ) ;
#160 = PERSON_AND_ORGANIZATION_ROLE ( 'design_owner' ) ;
#161 = AXIS2_PLACEMENT_3D ( 'NONE', #168, #130, #112 ) ;
#162 = PERSON_AND_ORGANIZATION ( #146, #85 ) ;
#163 = ORIENTED_EDGE ( 'NONE', *, *, #155, .F. ) ;
#164 = ORIENTED_EDGE ( 'NONE', *, *, #10, .F. ) ;
#165 = AXIS2_PLACEMENT_3D ( 'NONE', #149, #21, #129 ) ;
#166 = EDGE_CURVE ( 'NONE', #117, #117, #44, .T. ) ;
#167 = ORIENTED_EDGE ( 'NONE', *, *, #166, .F. ) ;
#168 = CARTESIAN_POINT ( 'NONE',  ( -6.413786353522001631E-31, 0.0000000000000000000, -1.836981421658448278E-16 ) ) ;
#169 = CARTESIAN_POINT ( 'NONE',  ( -3.206893176761000815E-31, 1.124826709063586741E-32, -9.184907108292241390E-17 ) ) ;
#170 = CYLINDRICAL_SURFACE ( 'NONE', #7, 1.999999999999998224 ) ;
#171 = APPROVAL_ROLE ( '' ) ;
#172 = LOCAL_TIME ( 15, 12, 46.00000000000000000, #47 ) ;
#173 = PLANE ( 'NONE',  #92 ) ;
#174 = DIRECTION ( 'NONE',  ( 3.491481338843133355E-15, -1.238606396782300839E-16, 1.000000000000000000 ) ) ;
#175 = APPROVAL_DATE_TIME ( #98, #70 ) ;
#176 = DIRECTION ( 'NONE',  ( -4.324571120537136967E-31, -1.000000000000000000, -1.238606396782300839E-16 ) ) ;
#177 = ADVANCED_FACE ( 'NONE', ( #93 ), #96, .F. ) ;
#178 = APPROVAL_PERSON_ORGANIZATION ( #45, #76, #121 ) ;
#179 = FACE_OUTER_BOUND ( 'NONE', #1, .T. ) ;
#180 = DIRECTION ( 'NONE',  ( 0.0000000000000000000, 0.0000000000000000000, 1.000000000000000000 ) ) ;
#181 = CC_DESIGN_DATE_AND_TIME_ASSIGNMENT ( #135, #215, ( #63 ) ) ;
#182 = DATE_AND_TIME ( #219, #187 ) ;
#183 = AXIS2_PLACEMENT_3D ( 'NONE', #113, #77, #19 ) ;
#184 = EDGE_LOOP ( 'NONE', ( #205 ) ) ;
#185 = ORIENTED_EDGE ( 'NONE', *, *, #136, .F. ) ;
#186 = PRODUCT_DEFINITION_FORMATION_WITH_SPECIFIED_SOURCE ( 'ANY', '', #141, .NOT_KNOWN. ) ;
#187 = LOCAL_TIME ( 15, 12, 46.00000000000000000, #241 ) ;
#188 = ADVANCED_FACE ( 'NONE', ( #108 ), #208, .F. ) ;
#189 = FACE_OUTER_BOUND ( 'NONE', #68, .T. ) ;
#190 = DIRECTION ( 'NONE',  ( 0.0000000000000000000, 1.000000000000000000, 0.0000000000000000000 ) ) ;
#191 = DIRECTION ( 'NONE',  ( 3.491481338843133355E-15, -1.238606396782300839E-16, 1.000000000000000000 ) ) ;
#192 = CC_DESIGN_PERSON_AND_ORGANIZATION_ASSIGNMENT ( #13, #140, ( #186 ) ) ;
#193 = CC_DESIGN_APPROVAL ( #76, ( #186 ) ) ;
#194 = DIRECTION ( 'NONE',  ( 3.491481338843133355E-15, -1.224646799147353454E-16, 1.000000000000000000 ) ) ;
#195 = CC_DESIGN_DATE_AND_TIME_ASSIGNMENT ( #114, #59, ( #81 ) ) ;
#196 = CIRCLE ( 'NONE', #165, 1.249999999999999778 ) ;
#197 = CARTESIAN_POINT ( 'NONE',  ( 1.222018468595096801E-13, 1.599999999999995648, 35.00000000000000000 ) ) ;
#198 = PRODUCT_RELATED_PRODUCT_CATEGORY ( 'detail', '', ( #141 ) ) ;
#199 = VERTEX_POINT ( 'NONE', #101 ) ;
#200 = APPLICATION_CONTEXT ( 'configuration controlled 3d designs of mechanical parts and assemblies' ) ;
#201 = APPROVAL_DATE_TIME ( #182, #76 ) ;
#202 = EDGE_CURVE ( 'NONE', #99, #99, #134, .T. ) ;
#203 = ORIENTED_EDGE ( 'NONE', *, *, #90, .T. ) ;
#204 = ORIENTED_EDGE ( 'NONE', *, *, #136, .T. ) ;
#205 = ORIENTED_EDGE ( 'NONE', *, *, #91, .F. ) ;
#206 = FACE_BOUND ( 'NONE', #71, .T. ) ;
#207 = CC_DESIGN_SECURITY_CLASSIFICATION ( #81, ( #186 ) ) ;
#208 = PLANE ( 'NONE',  #72 ) ;
#209 = COORDINATED_UNIVERSAL_TIME_OFFSET ( 1, 0, .AHEAD. ) ;
#210 = FACE_OUTER_BOUND ( 'NONE', #144, .T. ) ;
#211 = CARTESIAN_POINT ( 'NONE',  ( 1.222018468595096801E-13, -4.286263797015737285E-15, 35.00000000000000000 ) ) ;
#212 = CARTESIAN_POINT ( 'NONE',  ( 1.396592535537253342E-14, -4.954425587129203357E-16, 4.000000000000000000 ) ) ;
#213 = CALENDAR_DATE ( 2021, 8, 11 ) ;
#214 = CONICAL_SURFACE ( 'NONE', #2, 1.999999999999998668, 0.3926990816987175337 ) ;
#215 = DATE_TIME_ROLE ( 'creation_date' ) ;
#216 = PERSON_AND_ORGANIZATION ( #146, #85 ) ;
#217 = UNCERTAINTY_MEASURE_WITH_UNIT (LENGTH_MEASURE( 1.000000000000000082E-05 ), #236, 'distance_accuracy_value', 'NONE');
#218 = APPLICATION_PROTOCOL_DEFINITION ( 'international standard', 'config_control_design', 1994, #200 ) ;
#219 = CALENDAR_DATE ( 2021, 8, 11 ) ;
#220 = AXIS2_PLACEMENT_3D ( 'NONE', #41, #191, #6 ) ;
#221 = EDGE_LOOP ( 'NONE', ( #106 ) ) ;
#222 = MANIFOLD_SOLID_BREP ( 'Corps-Déplacer/Copier1[1]', #55 ) ;
#223 = LOCAL_TIME ( 15, 12, 46.00000000000000000, #209 ) ;
#224 = CIRCLE ( 'NONE', #115, 1.600000000000000089 ) ;
#225 = ADVANCED_FACE ( 'NONE', ( #128, #206 ), #123, .T. ) ;
#226 = CARTESIAN_POINT ( 'NONE',  ( 2.098231037489955975E-14, -7.443494988930218109E-16, 6.009572539159506732 ) ) ;
#227 = CC_DESIGN_PERSON_AND_ORGANIZATION_ASSIGNMENT ( #162, #229, ( #81 ) ) ;
#228 = DIRECTION ( 'NONE',  ( -3.491481338843133355E-15, 1.224646799147353454E-16, -1.000000000000000000 ) ) ;
#229 = PERSON_AND_ORGANIZATION_ROLE ( 'classification_officer' ) ;
#230 = CYLINDRICAL_SURFACE ( 'NONE', #161, 1.249999999999999778 ) ;
#231 = DIRECTION ( 'NONE',  ( 3.491481338843133355E-15, -1.224646799147353454E-16, 1.000000000000000000 ) ) ;
#232 = DIRECTION ( 'NONE',  ( -3.491481338843133355E-15, 1.224646799147353454E-16, -1.000000000000000000 ) ) ;
#233 = DIRECTION ( 'NONE',  ( 0.0000000000000000000, 1.000000000000000000, 0.0000000000000000000 ) ) ;
#234 = ADVANCED_FACE ( 'NONE', ( #179, #30 ), #235, .F. ) ;
#235 = TOROIDAL_SURFACE ( 'NONE', #27, 2.249999999999999112, 0.9999999999999991118 ) ;
#236 =( LENGTH_UNIT ( ) NAMED_UNIT ( * ) SI_UNIT ( .MILLI., .METRE. ) );
#237 = CC_DESIGN_PERSON_AND_ORGANIZATION_ASSIGNMENT ( #65, #104, ( #186 ) ) ;
#238 = DIRECTION ( 'NONE',  ( -3.491481338843133355E-15, 1.224646799147353454E-16, -1.000000000000000000 ) ) ;
#239 = CC_DESIGN_APPROVAL ( #145, ( #81 ) ) ;
#240 =( NAMED_UNIT ( * ) PLANE_ANGLE_UNIT ( ) SI_UNIT ( $, .RADIAN. ) );
#241 = COORDINATED_UNIVERSAL_TIME_OFFSET ( 1, 0, .AHEAD. ) ;
#242 = EDGE_LOOP ( 'NONE', ( #14 ) ) ;
#243 = EDGE_LOOP ( 'NONE', ( #88 ) ) ;
ENDSEC;
END-ISO-10303-21;
