ISO-10303-21;
HEADER;
FILE_DESCRIPTION (( 'STEP AP203' ),
    '1' );
FILE_NAME ('987603.step',
    '2021-11-08T14:12:45',
    ( '' ),
    ( '' ),
    'SwSTEP 2.0',
    'SolidWorks 2019',
    '' );
FILE_SCHEMA (( 'CONFIG_CONTROL_DESIGN' ));
ENDSEC;

DATA;
#1 = ORIENTED_EDGE ( 'NONE', *, *, #32, .T. ) ;
#2 = DATE_TIME_ROLE ( 'classification_date' ) ;
#3 = DIRECTION ( 'NONE',  ( 0.0000000000000000000, -1.000000000000000000, 0.0000000000000000000 ) ) ;
#4 = ORIENTED_EDGE ( 'NONE', *, *, #153, .T. ) ;
#5 = CC_DESIGN_PERSON_AND_ORGANIZATION_ASSIGNMENT ( #144, #190, ( #167 ) ) ;
#6 = EDGE_LOOP ( 'NONE', ( #187 ) ) ;
#7 = APPLICATION_CONTEXT ( 'configuration controlled 3d designs of mechanical parts and assemblies' ) ;
#8 = APPROVAL ( #87, 'UNSPECIFIED' ) ;
#9 = FACE_OUTER_BOUND ( 'NONE', #39, .T. ) ;
#10 = DIRECTION ( 'NONE',  ( -4.275831445896959482E-31, -1.000000000000000000, -1.224646799147353454E-16 ) ) ;
#11 = CARTESIAN_POINT ( 'NONE',  ( 1.396592535537253342E-14, -1.100000000000000311, 4.000000000000000000 ) ) ;
#12 = CIRCLE ( 'NONE', #194, 1.099999999999999423 ) ;
#13 = FACE_OUTER_BOUND ( 'NONE', #133, .T. ) ;
#14 = CARTESIAN_POINT ( 'NONE',  ( -4.757028232590848474E-31, -5.877365528713620315E-33, -1.362467036460530282E-16 ) ) ;
#15 = DATE_AND_TIME ( #239, #164 ) ;
#16 = LOCAL_TIME ( 15, 12, 45.00000000000000000, #89 ) ;
#17 = DATE_AND_TIME ( #103, #155 ) ;
#18 = APPROVAL_ROLE ( '' ) ;
#19 = PERSON_AND_ORGANIZATION_ROLE ( 'creator' ) ;
#20 = CALENDAR_DATE ( 2021, 8, 11 ) ;
#21 = APPROVAL_PERSON_ORGANIZATION ( #111, #8, #205 ) ;
#22 = CALENDAR_DATE ( 2021, 8, 11 ) ;
#23 = CARTESIAN_POINT ( 'NONE',  ( 1.396592535537253342E-14, -4.954425587129203357E-16, 4.000000000000000000 ) ) ;
#24 = DIRECTION ( 'NONE',  ( 3.491481338843133355E-15, -1.238606396782300839E-16, 1.000000000000000000 ) ) ;
#25 = APPROVAL_PERSON_ORGANIZATION ( #219, #160, #76 ) ;
#26 = EDGE_LOOP ( 'NONE', ( #99 ) ) ;
#27 = EDGE_CURVE ( 'NONE', #181, #181, #46, .T. ) ;
#28 = DIRECTION ( 'NONE',  ( 0.0000000000000000000, 1.000000000000000000, 0.0000000000000000000 ) ) ;
#29 = DIRECTION ( 'NONE',  ( 3.491481338843133355E-15, -1.238606396782300839E-16, 1.000000000000000000 ) ) ;
#30 = DIRECTION ( 'NONE',  ( 4.275831445896958607E-31, 1.000000000000000000, 1.224646799147353454E-16 ) ) ;
#31 = CONICAL_SURFACE ( 'NONE', #65, 1.999999999999999112, 0.3926990816987182553 ) ;
#32 = EDGE_CURVE ( 'NONE', #86, #86, #134, .T. ) ;
#33 = CIRCLE ( 'NONE', #142, 2.000000000000000000 ) ;
#34 = CARTESIAN_POINT ( 'NONE',  ( -9.514056465181696948E-31, -1.099999999999999423, -2.724934072921060565E-16 ) ) ;
#35 = PRODUCT_DEFINITION_SHAPE ( 'NONE', 'NONE',  #77 ) ;
#36 = PERSON_AND_ORGANIZATION ( #235, #119 ) ;
#37 = EDGE_CURVE ( 'NONE', #198, #198, #33, .T. ) ;
#38 = COORDINATED_UNIVERSAL_TIME_OFFSET ( 1, 0, .AHEAD. ) ;
#39 = EDGE_LOOP ( 'NONE', ( #44 ) ) ;
#40 = DIRECTION ( 'NONE',  ( 1.000000000000000000, 0.0000000000000000000, 0.0000000000000000000 ) ) ;
#41 = SECURITY_CLASSIFICATION_LEVEL ( 'unclassified' ) ;
#42 = EDGE_LOOP ( 'NONE', ( #191 ) ) ;
#43 = CARTESIAN_POINT ( 'NONE',  ( 1.396592535537253342E-14, -4.336808689942017736E-16, 4.000000000000000000 ) ) ;
#44 = ORIENTED_EDGE ( 'NONE', *, *, #27, .F. ) ;
#45 = AXIS2_PLACEMENT_3D ( 'NONE', #232, #141, #143 ) ;
#46 = CIRCLE ( 'NONE', #180, 1.099999999999999867 ) ;
#47 = CARTESIAN_POINT ( 'NONE',  ( 1.222018468595096801E-13, 1.199807826129480202E-32, 35.00000000000000000 ) ) ;
#48 = DIRECTION ( 'NONE',  ( -3.491481338843133355E-15, 1.224646799147353454E-16, -1.000000000000000000 ) ) ;
#49 = CYLINDRICAL_SURFACE ( 'NONE', #72, 1.099999999999999645 ) ;
#50 = DIRECTION ( 'NONE',  ( -4.275831445896959482E-31, -1.000000000000000000, -1.224646799147353454E-16 ) ) ;
#51 = CARTESIAN_POINT ( 'NONE',  ( -3.206893176761000815E-31, 1.124826709063586741E-32, -9.184907108292241390E-17 ) ) ;
#52 = VERTEX_POINT ( 'NONE', #146 ) ;
#53 = CC_DESIGN_DATE_AND_TIME_ASSIGNMENT ( #15, #204, ( #77 ) ) ;
#54 = VERTEX_POINT ( 'NONE', #112 ) ;
#55 = EDGE_LOOP ( 'NONE', ( #168 ) ) ;
#56 = PLANE ( 'NONE',  #106 ) ;
#57 = DIRECTION ( 'NONE',  ( -3.491481338843133355E-15, 1.224646799147353454E-16, -1.000000000000000000 ) ) ;
#58 = FACE_OUTER_BOUND ( 'NONE', #42, .T. ) ;
#59 = AXIS2_PLACEMENT_3D ( 'NONE', #107, #123, #121 ) ;
#60 = DIRECTION ( 'NONE',  ( -3.491481338843133355E-15, 1.224646799147353454E-16, -1.000000000000000000 ) ) ;
#61 = DIRECTION ( 'NONE',  ( -4.275831445896959482E-31, -1.000000000000000000, -1.224646799147353454E-16 ) ) ;
#62 = ADVANCED_FACE ( 'NONE', ( #75, #97 ), #179, .F. ) ;
#63 = DIRECTION ( 'NONE',  ( -4.324571120537136967E-31, -1.000000000000000000, -1.238606396782300839E-16 ) ) ;
#64 = DIRECTION ( 'NONE',  ( -4.324571120537137843E-31, -1.000000000000000000, -1.238606396782300593E-16 ) ) ;
#65 = AXIS2_PLACEMENT_3D ( 'NONE', #177, #105, #178 ) ;
#66 = ADVANCED_FACE ( 'NONE', ( #58 ), #56, .T. ) ;
#67 = VERTEX_POINT ( 'NONE', #230 ) ;
#68 = PERSON_AND_ORGANIZATION_ROLE ( 'design_owner' ) ;
#69 = PERSON_AND_ORGANIZATION_ROLE ( 'creator' ) ;
#70 = PERSON_AND_ORGANIZATION ( #235, #119 ) ;
#71 = AXIS2_PLACEMENT_3D ( 'NONE', #85, #137, #61 ) ;
#72 = AXIS2_PLACEMENT_3D ( 'NONE', #84, #29, #64 ) ;
#73 = PERSON_AND_ORGANIZATION_ROLE ( 'design_supplier' ) ;
#74 = EDGE_LOOP ( 'NONE', ( #193 ) ) ;
#75 = FACE_OUTER_BOUND ( 'NONE', #220, .T. ) ;
#76 = APPROVAL_ROLE ( '' ) ;
#77 = PRODUCT_DEFINITION ( 'UNKNOWN', '', #240, #120 ) ;
#78 = ORIENTED_EDGE ( 'NONE', *, *, #110, .T. ) ;
#79 = DIRECTION ( 'NONE',  ( 3.491481338843133355E-15, -1.238606396782300839E-16, 1.000000000000000000 ) ) ;
#80 = AXIS2_PLACEMENT_3D ( 'NONE', #158, #48, #28 ) ;
#81 = DIRECTION ( 'NONE',  ( -3.491481338843133355E-15, 1.224646799147353454E-16, -1.000000000000000000 ) ) ;
#82 = ADVANCED_FACE ( 'NONE', ( #139 ), #122, .F. ) ;
#83 =( GEOMETRIC_REPRESENTATION_CONTEXT ( 3 ) GLOBAL_UNCERTAINTY_ASSIGNED_CONTEXT ( ( #211 ) ) GLOBAL_UNIT_ASSIGNED_CONTEXT ( ( #166, #202, #127 ) ) REPRESENTATION_CONTEXT ( 'NONE', 'WORKASPACE' ) );
#84 = CARTESIAN_POINT ( 'NONE',  ( -6.413786353522001631E-31, 0.0000000000000000000, -1.836981421658448278E-16 ) ) ;
#85 = CARTESIAN_POINT ( 'NONE',  ( 1.396592535537253342E-14, 1.499759782661854871E-32, 4.000000000000000000 ) ) ;
#86 = VERTEX_POINT ( 'NONE', #11 ) ;
#87 = APPROVAL_STATUS ( 'not_yet_approved' ) ;
#88 = DATE_AND_TIME ( #20, #195 ) ;
#89 = COORDINATED_UNIVERSAL_TIME_OFFSET ( 1, 0, .AHEAD. ) ;
#90 = EDGE_CURVE ( 'NONE', #201, #201, #12, .T. ) ;
#91 = APPROVAL_DATE_TIME ( #88, #136 ) ;
#92 = AXIS2_PLACEMENT_3D ( 'NONE', #43, #173, #225 ) ;
#93 = CLOSED_SHELL ( 'NONE', ( #184, #115, #82, #62, #222, #171 ) ) ;
#94 = EDGE_LOOP ( 'NONE', ( #207 ) ) ;
#95 = CALENDAR_DATE ( 2021, 8, 11 ) ;
#96 = CC_DESIGN_PERSON_AND_ORGANIZATION_ASSIGNMENT ( #70, #69, ( #77 ) ) ;
#97 = FACE_OUTER_BOUND ( 'NONE', #6, .T. ) ;
#98 = EDGE_LOOP ( 'NONE', ( #116 ) ) ;
#99 = ORIENTED_EDGE ( 'NONE', *, *, #90, .T. ) ;
#100 = CC_DESIGN_APPROVAL ( #8, ( #240 ) ) ;
#101 = FACE_BOUND ( 'NONE', #154, .T. ) ;
#102 = ADVANCED_FACE ( 'NONE', ( #140, #9 ), #49, .T. ) ;
#103 = CALENDAR_DATE ( 2021, 8, 11 ) ;
#104 = PLANE ( 'NONE',  #71 ) ;
#105 = DIRECTION ( 'NONE',  ( 3.491481338843133355E-15, -1.238606396782300839E-16, 1.000000000000000000 ) ) ;
#106 = AXIS2_PLACEMENT_3D ( 'NONE', #131, #209, #10 ) ;
#107 = CARTESIAN_POINT ( 'NONE',  ( 1.222018468595096801E-13, -4.286263797015737285E-15, 35.00000000000000000 ) ) ;
#108 = FACE_OUTER_BOUND ( 'NONE', #192, .T. ) ;
#109 = CARTESIAN_POINT ( 'NONE',  ( 0.0000000000000000000, 0.0000000000000000000, 0.0000000000000000000 ) ) ;
#110 = EDGE_CURVE ( 'NONE', #67, #67, #231, .T. ) ;
#111 = PERSON_AND_ORGANIZATION ( #235, #119 ) ;
#112 = CARTESIAN_POINT ( 'NONE',  ( 2.224668761505072754E-14, -2.000000000000000000, 6.371704573515475367 ) ) ;
#113 = APPROVAL_STATUS ( 'not_yet_approved' ) ;
#114 = CC_DESIGN_APPROVAL ( #160, ( #167 ) ) ;
#115 = ADVANCED_FACE ( 'NONE', ( #13, #215 ), #199, .T. ) ;
#116 = ORIENTED_EDGE ( 'NONE', *, *, #32, .F. ) ;
#117 = EDGE_LOOP ( 'NONE', ( #176 ) ) ;
#118 = DIRECTION ( 'NONE',  ( 0.0000000000000000000, -1.000000000000000000, 0.0000000000000000000 ) ) ;
#119 = ORGANIZATION ( 'UNSPECIFIED', 'UNSPECIFIED', '' ) ;
#120 = DESIGN_CONTEXT ( 'detailed design', #203, 'design' ) ;
#121 = DIRECTION ( 'NONE',  ( 0.0000000000000000000, 1.000000000000000000, 0.0000000000000000000 ) ) ;
#122 = PLANE ( 'NONE',  #170 ) ;
#123 = DIRECTION ( 'NONE',  ( -3.491481338843133355E-15, 1.224646799147353454E-16, -1.000000000000000000 ) ) ;
#124 = CARTESIAN_POINT ( 'NONE',  ( 1.396592535537253342E-14, -1.100000000000000311, 4.000000000000000000 ) ) ;
#125 = CC_DESIGN_APPROVAL ( #136, ( #77 ) ) ;
#126 = DIRECTION ( 'NONE',  ( 4.275831445896959482E-31, 1.000000000000000000, 1.224646799147353454E-16 ) ) ;
#127 =( NAMED_UNIT ( * ) SI_UNIT ( $, .STERADIAN. ) SOLID_ANGLE_UNIT ( ) );
#128 = AXIS2_PLACEMENT_3D ( 'NONE', #163, #216, #183 ) ;
#129 = DIRECTION ( 'NONE',  ( 0.0000000000000000000, 0.0000000000000000000, 1.000000000000000000 ) ) ;
#130 = EDGE_LOOP ( 'NONE', ( #152 ) ) ;
#131 = CARTESIAN_POINT ( 'NONE',  ( 1.396592535537253342E-14, 1.499759782661854871E-32, 4.000000000000000000 ) ) ;
#132 = CARTESIAN_POINT ( 'NONE',  ( 1.396592535537253342E-14, -4.954425587129203357E-16, 4.000000000000000000 ) ) ;
#133 = EDGE_LOOP ( 'NONE', ( #226 ) ) ;
#134 = CIRCLE ( 'NONE', #151, 1.099999999999999867 ) ;
#135 = CC_DESIGN_DATE_AND_TIME_ASSIGNMENT ( #172, #2, ( #167 ) ) ;
#136 = APPROVAL ( #113, 'UNSPECIFIED' ) ;
#137 = DIRECTION ( 'NONE',  ( 3.491481338843133355E-15, -1.224646799147353454E-16, 1.000000000000000000 ) ) ;
#138 = MANIFOLD_SOLID_BREP ( 'Corps-Déplacer/Copier1[1]', #93 ) ;
#139 = FACE_OUTER_BOUND ( 'NONE', #130, .T. ) ;
#140 = FACE_OUTER_BOUND ( 'NONE', #26, .T. ) ;
#141 = DIRECTION ( 'NONE',  ( 3.491481338843133355E-15, -1.238606396782300839E-16, 1.000000000000000000 ) ) ;
#142 = AXIS2_PLACEMENT_3D ( 'NONE', #210, #57, #227 ) ;
#143 = DIRECTION ( 'NONE',  ( 0.0000000000000000000, -1.000000000000000000, 0.0000000000000000000 ) ) ;
#144 = PERSON_AND_ORGANIZATION ( #235, #119 ) ;
#145 = APPROVAL_DATE_TIME ( #17, #160 ) ;
#146 = CARTESIAN_POINT ( 'NONE',  ( 1.222018468595096801E-13, 1.599999999999995648, 35.00000000000000000 ) ) ;
#147 = APPLICATION_PROTOCOL_DEFINITION ( 'international standard', 'config_control_design', 1994, #7 ) ;
#148 = AXIS2_PLACEMENT_3D ( 'NONE', #234, #81, #30 ) ;
#149 = APPLICATION_PROTOCOL_DEFINITION ( 'international standard', 'config_control_design', 1994, #203 ) ;
#150 = COORDINATED_UNIVERSAL_TIME_OFFSET ( 1, 0, .AHEAD. ) ;
#151 = AXIS2_PLACEMENT_3D ( 'NONE', #23, #79, #3 ) ;
#152 = ORIENTED_EDGE ( 'NONE', *, *, #175, .F. ) ;
#153 = EDGE_CURVE ( 'NONE', #54, #54, #206, .T. ) ;
#154 = EDGE_LOOP ( 'NONE', ( #78 ) ) ;
#155 = LOCAL_TIME ( 15, 12, 45.00000000000000000, #150 ) ;
#156 = CC_DESIGN_PERSON_AND_ORGANIZATION_ASSIGNMENT ( #36, #68, ( #182 ) ) ;
#157 = FACE_OUTER_BOUND ( 'NONE', #94, .T. ) ;
#158 = CARTESIAN_POINT ( 'NONE',  ( 1.222018468595096801E-13, -4.286263797015737285E-15, 35.00000000000000000 ) ) ;
#159 = CC_DESIGN_SECURITY_CLASSIFICATION ( #167, ( #240 ) ) ;
#160 = APPROVAL ( #174, 'UNSPECIFIED' ) ;
#161 = FACE_OUTER_BOUND ( 'NONE', #98, .T. ) ;
#162 = DIRECTION ( 'NONE',  ( 3.491481338843133355E-15, -1.224646799147353454E-16, 1.000000000000000000 ) ) ;
#163 = CARTESIAN_POINT ( 'NONE',  ( 1.530205741815966055E-14, -5.428419734399202756E-16, 4.382683432365084286 ) ) ;
#164 = LOCAL_TIME ( 15, 12, 45.00000000000000000, #169 ) ;
#165 = DATE_AND_TIME ( #22, #200 ) ;
#166 =( LENGTH_UNIT ( ) NAMED_UNIT ( * ) SI_UNIT ( .MILLI., .METRE. ) );
#167 = SECURITY_CLASSIFICATION ( '', '', #41 ) ;
#168 = ORIENTED_EDGE ( 'NONE', *, *, #90, .F. ) ;
#169 = COORDINATED_UNIVERSAL_TIME_OFFSET ( 1, 0, .AHEAD. ) ;
#170 = AXIS2_PLACEMENT_3D ( 'NONE', #47, #60, #126 ) ;
#171 = ADVANCED_FACE ( 'NONE', ( #161 ), #104, .F. ) ;
#172 = DATE_AND_TIME ( #95, #16 ) ;
#173 = DIRECTION ( 'NONE',  ( 3.491481338843133355E-15, -1.238606396782300839E-16, 1.000000000000000000 ) ) ;
#174 = APPROVAL_STATUS ( 'not_yet_approved' ) ;
#175 = EDGE_CURVE ( 'NONE', #52, #52, #237, .T. ) ;
#176 = ORIENTED_EDGE ( 'NONE', *, *, #37, .T. ) ;
#177 = CARTESIAN_POINT ( 'NONE',  ( 2.224668761505072754E-14, -7.892034043163308994E-16, 6.371704573515475367 ) ) ;
#178 = DIRECTION ( 'NONE',  ( 0.0000000000000000000, -1.000000000000000000, 0.0000000000000000000 ) ) ;
#179 = TOROIDAL_SURFACE ( 'NONE', #92, 2.100000000000000089, 1.000000000000000000 ) ;
#180 = AXIS2_PLACEMENT_3D ( 'NONE', #132, #24, #118 ) ;
#181 = VERTEX_POINT ( 'NONE', #124 ) ;
#182 = PRODUCT ( '987603', '987603', '', ( #185 ) ) ;
#183 = DIRECTION ( 'NONE',  ( 0.0000000000000000000, -1.000000000000000000, 0.0000000000000000000 ) ) ;
#184 = ADVANCED_FACE ( 'NONE', ( #217, #108 ), #197, .T. ) ;
#185 = MECHANICAL_CONTEXT ( 'NONE', #7, 'mechanical' ) ;
#186 = COORDINATED_UNIVERSAL_TIME_OFFSET ( 1, 0, .AHEAD. ) ;
#187 = ORIENTED_EDGE ( 'NONE', *, *, #110, .F. ) ;
#188 = PERSON_AND_ORGANIZATION ( #235, #119 ) ;
#189 = ADVANCED_FACE ( 'NONE', ( #233 ), #218, .F. ) ;
#190 = PERSON_AND_ORGANIZATION_ROLE ( 'classification_officer' ) ;
#191 = ORIENTED_EDGE ( 'NONE', *, *, #27, .T. ) ;
#192 = EDGE_LOOP ( 'NONE', ( #4 ) ) ;
#193 = ORIENTED_EDGE ( 'NONE', *, *, #175, .T. ) ;
#194 = AXIS2_PLACEMENT_3D ( 'NONE', #14, #196, #63 ) ;
#195 = LOCAL_TIME ( 15, 12, 45.00000000000000000, #186 ) ;
#196 = DIRECTION ( 'NONE',  ( 3.491481338843133355E-15, -1.238606396782300839E-16, 1.000000000000000000 ) ) ;
#197 = CYLINDRICAL_SURFACE ( 'NONE', #148, 1.999999999999998224 ) ;
#198 = VERTEX_POINT ( 'NONE', #236 ) ;
#199 = CONICAL_SURFACE ( 'NONE', #80, 1.600000000000000089, 0.7853981633974512766 ) ;
#200 = LOCAL_TIME ( 15, 12, 45.00000000000000000, #38 ) ;
#201 = VERTEX_POINT ( 'NONE', #34 ) ;
#202 =( NAMED_UNIT ( * ) PLANE_ANGLE_UNIT ( ) SI_UNIT ( $, .RADIAN. ) );
#203 = APPLICATION_CONTEXT ( 'configuration controlled 3d designs of mechanical parts and assemblies' ) ;
#204 = DATE_TIME_ROLE ( 'creation_date' ) ;
#205 = APPROVAL_ROLE ( '' ) ;
#206 = CIRCLE ( 'NONE', #45, 1.999999999999999112 ) ;
#207 = ORIENTED_EDGE ( 'NONE', *, *, #153, .F. ) ;
#208 = CC_DESIGN_PERSON_AND_ORGANIZATION_ASSIGNMENT ( #221, #19, ( #240 ) ) ;
#209 = DIRECTION ( 'NONE',  ( 3.491481338843133355E-15, -1.224646799147353454E-16, 1.000000000000000000 ) ) ;
#210 = CARTESIAN_POINT ( 'NONE',  ( 1.208052543239724267E-13, -4.237277925049843857E-15, 34.60000000000000853 ) ) ;
#211 = UNCERTAINTY_MEASURE_WITH_UNIT (LENGTH_MEASURE( 1.000000000000000082E-05 ), #166, 'distance_accuracy_value', 'NONE');
#212 = AXIS2_PLACEMENT_3D ( 'NONE', #51, #162, #50 ) ;
#213 = APPROVAL_PERSON_ORGANIZATION ( #188, #136, #18 ) ;
#214 = CC_DESIGN_PERSON_AND_ORGANIZATION_ASSIGNMENT ( #238, #73, ( #240 ) ) ;
#215 = FACE_BOUND ( 'NONE', #74, .T. ) ;
#216 = DIRECTION ( 'NONE',  ( 3.491481338843133355E-15, -1.238606396782300839E-16, 1.000000000000000000 ) ) ;
#217 = FACE_OUTER_BOUND ( 'NONE', #117, .T. ) ;
#218 = PLANE ( 'NONE',  #212 ) ;
#219 = PERSON_AND_ORGANIZATION ( #235, #119 ) ;
#220 = EDGE_LOOP ( 'NONE', ( #1 ) ) ;
#221 = PERSON_AND_ORGANIZATION ( #235, #119 ) ;
#222 = ADVANCED_FACE ( 'NONE', ( #101, #157 ), #31, .T. ) ;
#223 = MANIFOLD_SOLID_BREP ( 'Corps-Déplacer/Copier1[2]', #224 ) ;
#224 = CLOSED_SHELL ( 'NONE', ( #66, #102, #189 ) ) ;
#225 = DIRECTION ( 'NONE',  ( -4.324571120537136967E-31, -1.000000000000000000, -1.238606396782300839E-16 ) ) ;
#226 = ORIENTED_EDGE ( 'NONE', *, *, #37, .F. ) ;
#227 = DIRECTION ( 'NONE',  ( 0.0000000000000000000, 1.000000000000000000, 0.0000000000000000000 ) ) ;
#228 = AXIS2_PLACEMENT_3D ( 'NONE', #109, #129, #40 ) ;
#229 = PRODUCT_RELATED_PRODUCT_CATEGORY ( 'detail', '', ( #182 ) ) ;
#230 = CARTESIAN_POINT ( 'NONE',  ( 1.530205741815966055E-14, -1.176120467488711352, 4.382683432365084286 ) ) ;
#231 = CIRCLE ( 'NONE', #128, 1.176120467488710686 ) ;
#232 = CARTESIAN_POINT ( 'NONE',  ( 2.224668761505072754E-14, -7.892034043163308994E-16, 6.371704573515475367 ) ) ;
#233 = FACE_OUTER_BOUND ( 'NONE', #55, .T. ) ;
#234 = CARTESIAN_POINT ( 'NONE',  ( 0.0000000000000000000, 0.0000000000000000000, 0.0000000000000000000 ) ) ;
#235 = PERSON ( 'UNSPECIFIED', 'UNSPECIFIED', 'UNSPECIFIED', ('UNSPECIFIED'), ('UNSPECIFIED'), ('UNSPECIFIED') ) ;
#236 = CARTESIAN_POINT ( 'NONE',  ( 1.208052543239724267E-13, 1.999999999999995781, 34.60000000000000853 ) ) ;
#237 = CIRCLE ( 'NONE', #59, 1.600000000000000089 ) ;
#238 = PERSON_AND_ORGANIZATION ( #235, #119 ) ;
#239 = CALENDAR_DATE ( 2021, 8, 11 ) ;
#240 = PRODUCT_DEFINITION_FORMATION_WITH_SPECIFIED_SOURCE ( 'ANY', '', #182, .NOT_KNOWN. ) ;
#241 = ADVANCED_BREP_SHAPE_REPRESENTATION ( '987603', ( #138, #223, #228 ), #83 ) ;
#242 = SHAPE_DEFINITION_REPRESENTATION ( #35, #241 ) ;
#243 = APPROVAL_DATE_TIME ( #165, #8 ) ;
ENDSEC;
END-ISO-10303-21;
