ISO-10303-21;
HEADER;
FILE_DESCRIPTION (( 'STEP AP203' ),
    '1' );
FILE_NAME ('987602.step',
    '2021-11-08T14:12:44',
    ( '' ),
    ( '' ),
    'SwSTEP 2.0',
    'SolidWorks 2019',
    '' );
FILE_SCHEMA (( 'CONFIG_CONTROL_DESIGN' ));
ENDSEC;

DATA;
#1 = DIRECTION ( 'NONE',  ( -4.324571120537137843E-31, -1.000000000000000000, -1.238606396782301086E-16 ) ) ;
#2 = AXIS2_PLACEMENT_3D ( 'NONE', #108, #106, #186 ) ;
#3 = DIRECTION ( 'NONE',  ( 0.0000000000000000000, -1.000000000000000000, 0.0000000000000000000 ) ) ;
#4 = DIRECTION ( 'NONE',  ( -3.491481338843133355E-15, 1.224646799147353454E-16, -1.000000000000000000 ) ) ;
#5 = VERTEX_POINT ( 'NONE', #23 ) ;
#6 = CC_DESIGN_APPROVAL ( #125, ( #204 ) ) ;
#7 = PERSON_AND_ORGANIZATION ( #113, #12 ) ;
#8 = CC_DESIGN_PERSON_AND_ORGANIZATION_ASSIGNMENT ( #62, #56, ( #68 ) ) ;
#9 = DESIGN_CONTEXT ( 'detailed design', #229, 'design' ) ;
#10 = VERTEX_POINT ( 'NONE', #111 ) ;
#11 = APPROVAL ( #132, 'UNSPECIFIED' ) ;
#12 = ORGANIZATION ( 'UNSPECIFIED', 'UNSPECIFIED', '' ) ;
#13 = CALENDAR_DATE ( 2021, 8, 11 ) ;
#14 = EDGE_LOOP ( 'NONE', ( #31 ) ) ;
#15 = CC_DESIGN_APPROVAL ( #142, ( #158 ) ) ;
#16 = DIRECTION ( 'NONE',  ( -4.324571120537137843E-31, -1.000000000000000000, -1.238606396782301086E-16 ) ) ;
#17 = FACE_OUTER_BOUND ( 'NONE', #236, .T. ) ;
#18 = DIRECTION ( 'NONE',  ( -4.275831445896959482E-31, -1.000000000000000000, -1.224646799147353454E-16 ) ) ;
#19 = AXIS2_PLACEMENT_3D ( 'NONE', #94, #227, #55 ) ;
#20 = CARTESIAN_POINT ( 'NONE',  ( -4.108342564510278586E-31, -8.178584237938669246E-33, -1.176676076943185378E-16 ) ) ;
#21 = PERSON_AND_ORGANIZATION_ROLE ( 'creator' ) ;
#22 = EDGE_CURVE ( 'NONE', #5, #5, #181, .T. ) ;
#23 = CARTESIAN_POINT ( 'NONE',  ( 2.176532418578032865E-14, -1.999999999999999556, 6.233836607871445779 ) ) ;
#24 = CIRCLE ( 'NONE', #129, 2.000000000000000000 ) ;
#25 = LOCAL_TIME ( 15, 12, 44.00000000000000000, #117 ) ;
#26 = VERTEX_POINT ( 'NONE', #152 ) ;
#27 = EDGE_CURVE ( 'NONE', #176, #176, #192, .T. ) ;
#28 =( LENGTH_UNIT ( ) NAMED_UNIT ( * ) SI_UNIT ( .MILLI., .METRE. ) );
#29 = PERSON_AND_ORGANIZATION ( #113, #12 ) ;
#30 = ORIENTED_EDGE ( 'NONE', *, *, #112, .T. ) ;
#31 = ORIENTED_EDGE ( 'NONE', *, *, #64, .F. ) ;
#32 = EDGE_LOOP ( 'NONE', ( #99 ) ) ;
#33 = AXIS2_PLACEMENT_3D ( 'NONE', #70, #167, #18 ) ;
#34 = DIRECTION ( 'NONE',  ( 3.491481338843133355E-15, -1.224646799147353454E-16, 1.000000000000000000 ) ) ;
#35 = DIRECTION ( 'NONE',  ( 3.491481338843133355E-15, -1.238606396782300839E-16, 1.000000000000000000 ) ) ;
#36 = FACE_OUTER_BOUND ( 'NONE', #178, .T. ) ;
#37 = FACE_OUTER_BOUND ( 'NONE', #14, .T. ) ;
#38 = FACE_OUTER_BOUND ( 'NONE', #45, .T. ) ;
#39 = CLOSED_SHELL ( 'NONE', ( #161, #233, #175, #131, #215, #95 ) ) ;
#40 = LOCAL_TIME ( 15, 12, 44.00000000000000000, #231 ) ;
#41 = COORDINATED_UNIVERSAL_TIME_OFFSET ( 1, 0, .AHEAD. ) ;
#42 = CC_DESIGN_PERSON_AND_ORGANIZATION_ASSIGNMENT ( #151, #21, ( #204 ) ) ;
#43 = PERSON_AND_ORGANIZATION ( #113, #12 ) ;
#44 = AXIS2_PLACEMENT_3D ( 'NONE', #120, #224, #102 ) ;
#45 = EDGE_LOOP ( 'NONE', ( #199 ) ) ;
#46 = APPROVAL_STATUS ( 'not_yet_approved' ) ;
#47 = ADVANCED_FACE ( 'NONE', ( #222, #118 ), #75, .T. ) ;
#48 = PERSON_AND_ORGANIZATION ( #113, #12 ) ;
#49 = EDGE_CURVE ( 'NONE', #26, #26, #24, .T. ) ;
#50 = CARTESIAN_POINT ( 'NONE',  ( 1.208052543239724267E-13, -4.237277925049843857E-15, 34.60000000000000853 ) ) ;
#51 = DIRECTION ( 'NONE',  ( 0.0000000000000000000, -1.000000000000000000, 0.0000000000000000000 ) ) ;
#52 = CARTESIAN_POINT ( 'NONE',  ( 2.176532418578032865E-14, -7.721269899005251678E-16, 6.233836607871445779 ) ) ;
#53 = DIRECTION ( 'NONE',  ( 3.491481338843133355E-15, -1.238606396782300839E-16, 1.000000000000000000 ) ) ;
#54 = DIRECTION ( 'NONE',  ( 0.0000000000000000000, 1.000000000000000000, 0.0000000000000000000 ) ) ;
#55 = DIRECTION ( 'NONE',  ( 0.0000000000000000000, 1.000000000000000000, 0.0000000000000000000 ) ) ;
#56 = PERSON_AND_ORGANIZATION_ROLE ( 'design_owner' ) ;
#57 = CIRCLE ( 'NONE', #164, 0.9499999999999996225 ) ;
#58 =( NAMED_UNIT ( * ) SI_UNIT ( $, .STERADIAN. ) SOLID_ANGLE_UNIT ( ) );
#59 = PERSON_AND_ORGANIZATION ( #113, #12 ) ;
#60 = MECHANICAL_CONTEXT ( 'NONE', #214, 'mechanical' ) ;
#61 = CONICAL_SURFACE ( 'NONE', #90, 1.999999999999998668, 0.3926990816987179778 ) ;
#62 = PERSON_AND_ORGANIZATION ( #113, #12 ) ;
#63 = APPROVAL_ROLE ( '' ) ;
#64 = EDGE_CURVE ( 'NONE', #196, #196, #115, .T. ) ;
#65 = AXIS2_PLACEMENT_3D ( 'NONE', #166, #223, #126 ) ;
#66 = EDGE_LOOP ( 'NONE', ( #180 ) ) ;
#67 = LOCAL_TIME ( 15, 12, 44.00000000000000000, #41 ) ;
#68 = PRODUCT ( '987602', '987602', '', ( #60 ) ) ;
#69 = DIRECTION ( 'NONE',  ( 3.491481338843133355E-15, -1.238606396782300839E-16, 1.000000000000000000 ) ) ;
#70 = CARTESIAN_POINT ( 'NONE',  ( -3.206893176761000815E-31, 1.124826709063586741E-32, -9.184907108292241390E-17 ) ) ;
#71 = DIRECTION ( 'NONE',  ( 0.0000000000000000000, -1.000000000000000000, 0.0000000000000000000 ) ) ;
#72 = CIRCLE ( 'NONE', #85, 1.600000000000000089 ) ;
#73 = DIRECTION ( 'NONE',  ( -3.491481338843133355E-15, 1.224646799147353454E-16, -1.000000000000000000 ) ) ;
#74 = CC_DESIGN_PERSON_AND_ORGANIZATION_ASSIGNMENT ( #174, #195, ( #238 ) ) ;
#75 = CYLINDRICAL_SURFACE ( 'NONE', #209, 0.9499999999999996225 ) ;
#76 = DATE_TIME_ROLE ( 'creation_date' ) ;
#77 = AXIS2_PLACEMENT_3D ( 'NONE', #96, #165, #187 ) ;
#78 = APPROVAL_STATUS ( 'not_yet_approved' ) ;
#79 = APPROVAL_DATE_TIME ( #128, #125 ) ;
#80 = CARTESIAN_POINT ( 'NONE',  ( 1.222018468595096359E-14, -0.9500000000000000666, 3.499999999999999112 ) ) ;
#81 = CONICAL_SURFACE ( 'NONE', #19, 1.600000000000000089, 0.7853981633974512766 ) ;
#82 = DIRECTION ( 'NONE',  ( 1.000000000000000000, 0.0000000000000000000, 0.0000000000000000000 ) ) ;
#83 = EDGE_CURVE ( 'NONE', #109, #109, #138, .T. ) ;
#84 = PERSON_AND_ORGANIZATION_ROLE ( 'classification_officer' ) ;
#85 = AXIS2_PLACEMENT_3D ( 'NONE', #145, #4, #54 ) ;
#86 = EDGE_LOOP ( 'NONE', ( #89 ) ) ;
#87 = CARTESIAN_POINT ( 'NONE',  ( 2.176532418578032865E-14, -7.721269899005251678E-16, 6.233836607871445779 ) ) ;
#88 = EDGE_LOOP ( 'NONE', ( #239 ) ) ;
#89 = ORIENTED_EDGE ( 'NONE', *, *, #22, .T. ) ;
#90 = AXIS2_PLACEMENT_3D ( 'NONE', #52, #122, #3 ) ;
#91 = FACE_OUTER_BOUND ( 'NONE', #88, .T. ) ;
#92 = DIRECTION ( 'NONE',  ( 0.0000000000000000000, 1.000000000000000000, 0.0000000000000000000 ) ) ;
#93 = PLANE ( 'NONE',  #33 ) ;
#94 = CARTESIAN_POINT ( 'NONE',  ( 1.222018468595096801E-13, -4.286263797015737285E-15, 35.00000000000000000 ) ) ;
#95 = ADVANCED_FACE ( 'NONE', ( #38 ), #146, .F. ) ;
#96 = CARTESIAN_POINT ( 'NONE',  ( 1.222018468595096801E-13, 1.199807826129480202E-32, 35.00000000000000000 ) ) ;
#97 = CALENDAR_DATE ( 2021, 8, 11 ) ;
#98 = PRODUCT_RELATED_PRODUCT_CATEGORY ( 'detail', '', ( #68 ) ) ;
#99 = ORIENTED_EDGE ( 'NONE', *, *, #64, .T. ) ;
#100 = ORIENTED_EDGE ( 'NONE', *, *, #49, .F. ) ;
#101 = MANIFOLD_SOLID_BREP ( 'Corps-Déplacer/Copier1[2]', #230 ) ;
#102 = DIRECTION ( 'NONE',  ( -4.275831445896959482E-31, -1.000000000000000000, -1.224646799147353454E-16 ) ) ;
#103 = MANIFOLD_SOLID_BREP ( 'Corps-Déplacer/Copier1[1]', #39 ) ;
#104 = APPROVAL_PERSON_ORGANIZATION ( #7, #125, #136 ) ;
#105 = FACE_BOUND ( 'NONE', #162, .T. ) ;
#106 = DIRECTION ( 'NONE',  ( -3.491481338843133355E-15, 1.224646799147353454E-16, -1.000000000000000000 ) ) ;
#107 = CARTESIAN_POINT ( 'NONE',  ( 1.222018468595096359E-14, -4.335122388738052198E-16, 3.499999999999999112 ) ) ;
#108 = CARTESIAN_POINT ( 'NONE',  ( 0.0000000000000000000, 0.0000000000000000000, 0.0000000000000000000 ) ) ;
#109 = VERTEX_POINT ( 'NONE', #80 ) ;
#110 = CALENDAR_DATE ( 2021, 8, 11 ) ;
#111 = CARTESIAN_POINT ( 'NONE',  ( 1.222018468595096801E-13, 1.599999999999995648, 35.00000000000000000 ) ) ;
#112 = EDGE_CURVE ( 'NONE', #10, #10, #72, .T. ) ;
#113 = PERSON ( 'UNSPECIFIED', 'UNSPECIFIED', 'UNSPECIFIED', ('UNSPECIFIED'), ('UNSPECIFIED'), ('UNSPECIFIED') ) ;
#114 = DATE_TIME_ROLE ( 'classification_date' ) ;
#115 = CIRCLE ( 'NONE', #150, 0.9499999999999995115 ) ;
#116 = EDGE_LOOP ( 'NONE', ( #216 ) ) ;
#117 = COORDINATED_UNIVERSAL_TIME_OFFSET ( 1, 0, .AHEAD. ) ;
#118 = FACE_OUTER_BOUND ( 'NONE', #116, .T. ) ;
#119 = ORIENTED_EDGE ( 'NONE', *, *, #49, .T. ) ;
#120 = CARTESIAN_POINT ( 'NONE',  ( 1.222018468595096517E-14, -1.517883041479708969E-15, 3.499999999999999556 ) ) ;
#121 = DIRECTION ( 'NONE',  ( 0.0000000000000000000, -1.000000000000000000, 0.0000000000000000000 ) ) ;
#122 = DIRECTION ( 'NONE',  ( 3.491481338843133355E-15, -1.238606396782300839E-16, 1.000000000000000000 ) ) ;
#123 = APPROVAL_PERSON_ORGANIZATION ( #29, #142, #63 ) ;
#124 = PLANE ( 'NONE',  #44 ) ;
#125 = APPROVAL ( #78, 'UNSPECIFIED' ) ;
#126 = DIRECTION ( 'NONE',  ( -4.414589067666830725E-31, -1.000000000000000000, -1.238606396782300839E-16 ) ) ;
#127 = DIRECTION ( 'NONE',  ( 0.0000000000000000000, -1.000000000000000000, 0.0000000000000000000 ) ) ;
#128 = DATE_AND_TIME ( #171, #141 ) ;
#129 = AXIS2_PLACEMENT_3D ( 'NONE', #50, #73, #92 ) ;
#130 = CARTESIAN_POINT ( 'NONE',  ( -8.216685129020557172E-31, -0.9499999999999995115, -2.353352153886370757E-16 ) ) ;
#131 = ADVANCED_FACE ( 'NONE', ( #243, #148 ), #173, .F. ) ;
#132 = APPROVAL_STATUS ( 'not_yet_approved' ) ;
#133 = COORDINATED_UNIVERSAL_TIME_OFFSET ( 1, 0, .AHEAD. ) ;
#134 = AXIS2_PLACEMENT_3D ( 'NONE', #226, #34, #147 ) ;
#135 = ADVANCED_FACE ( 'NONE', ( #91 ), #124, .T. ) ;
#136 = APPROVAL_ROLE ( '' ) ;
#137 = APPROVAL_DATE_TIME ( #157, #142 ) ;
#138 = CIRCLE ( 'NONE', #240, 0.9499999999999996225 ) ;
#139 = EDGE_LOOP ( 'NONE', ( #219 ) ) ;
#140 = EDGE_LOOP ( 'NONE', ( #160 ) ) ;
#141 = LOCAL_TIME ( 15, 12, 44.00000000000000000, #133 ) ;
#142 = APPROVAL ( #46, 'UNSPECIFIED' ) ;
#143 = DIRECTION ( 'NONE',  ( 3.491481338843133355E-15, -1.238606396782300839E-16, 1.000000000000000000 ) ) ;
#144 = FACE_BOUND ( 'NONE', #139, .T. ) ;
#145 = CARTESIAN_POINT ( 'NONE',  ( 1.222018468595096801E-13, -4.286263797015737285E-15, 35.00000000000000000 ) ) ;
#146 = PLANE ( 'NONE',  #134 ) ;
#147 = DIRECTION ( 'NONE',  ( -4.275831445896959482E-31, -1.000000000000000000, -1.224646799147353454E-16 ) ) ;
#148 = FACE_OUTER_BOUND ( 'NONE', #140, .T. ) ;
#149 = CARTESIAN_POINT ( 'NONE',  ( 1.222018468595096359E-14, -0.9500000000000000666, 3.499999999999999112 ) ) ;
#150 = AXIS2_PLACEMENT_3D ( 'NONE', #20, #168, #1 ) ;
#151 = PERSON_AND_ORGANIZATION ( #113, #12 ) ;
#152 = CARTESIAN_POINT ( 'NONE',  ( 1.208052543239724267E-13, 1.999999999999995781, 34.60000000000000853 ) ) ;
#153 = CC_DESIGN_PERSON_AND_ORGANIZATION_ASSIGNMENT ( #43, #156, ( #238 ) ) ;
#154 = APPLICATION_PROTOCOL_DEFINITION ( 'international standard', 'config_control_design', 1994, #214 ) ;
#155 = AXIS2_PLACEMENT_3D ( 'NONE', #87, #143, #121 ) ;
#156 = PERSON_AND_ORGANIZATION_ROLE ( 'design_supplier' ) ;
#157 = DATE_AND_TIME ( #237, #25 ) ;
#158 = SECURITY_CLASSIFICATION ( '', '', #234 ) ;
#159 = ORIENTED_EDGE ( 'NONE', *, *, #112, .F. ) ;
#160 = ORIENTED_EDGE ( 'NONE', *, *, #27, .F. ) ;
#161 = ADVANCED_FACE ( 'NONE', ( #36, #206 ), #205, .T. ) ;
#162 = EDGE_LOOP ( 'NONE', ( #30 ) ) ;
#163 = ADVANCED_BREP_SHAPE_REPRESENTATION ( '987602', ( #103, #101, #198 ), #221 ) ;
#164 = AXIS2_PLACEMENT_3D ( 'NONE', #184, #35, #127 ) ;
#165 = DIRECTION ( 'NONE',  ( -3.491481338843133355E-15, 1.224646799147353454E-16, -1.000000000000000000 ) ) ;
#166 = CARTESIAN_POINT ( 'NONE',  ( 1.222018468595096201E-14, -4.336808689942017736E-16, 3.499999999999998668 ) ) ;
#167 = DIRECTION ( 'NONE',  ( 3.491481338843133355E-15, -1.224646799147353454E-16, 1.000000000000000000 ) ) ;
#168 = DIRECTION ( 'NONE',  ( 3.491481338843133355E-15, -1.238606396782300839E-16, 1.000000000000000000 ) ) ;
#169 = FACE_OUTER_BOUND ( 'NONE', #200, .T. ) ;
#170 = EDGE_CURVE ( 'NONE', #210, #210, #57, .T. ) ;
#171 = CALENDAR_DATE ( 2021, 8, 11 ) ;
#172 = APPLICATION_PROTOCOL_DEFINITION ( 'international standard', 'config_control_design', 1994, #229 ) ;
#173 = TOROIDAL_SURFACE ( 'NONE', #65, 1.949999999999999956, 1.000000000000000000 ) ;
#174 = PERSON_AND_ORGANIZATION ( #113, #12 ) ;
#175 = ADVANCED_FACE ( 'NONE', ( #17 ), #207, .F. ) ;
#176 = VERTEX_POINT ( 'NONE', #190 ) ;
#177 = APPROVAL_PERSON_ORGANIZATION ( #59, #11, #211 ) ;
#178 = EDGE_LOOP ( 'NONE', ( #119 ) ) ;
#179 = ADVANCED_FACE ( 'NONE', ( #37 ), #93, .F. ) ;
#180 = ORIENTED_EDGE ( 'NONE', *, *, #83, .T. ) ;
#181 = CIRCLE ( 'NONE', #155, 1.999999999999998668 ) ;
#182 = LOCAL_TIME ( 15, 12, 44.00000000000000000, #218 ) ;
#183 = EDGE_LOOP ( 'NONE', ( #100 ) ) ;
#184 = CARTESIAN_POINT ( 'NONE',  ( 1.222018468595096359E-14, -4.335122388738052198E-16, 3.499999999999999112 ) ) ;
#185 = CARTESIAN_POINT ( 'NONE',  ( -6.413786353522001631E-31, 0.0000000000000000000, -1.836981421658448278E-16 ) ) ;
#186 = DIRECTION ( 'NONE',  ( 4.275831445896958607E-31, 1.000000000000000000, 1.224646799147353454E-16 ) ) ;
#187 = DIRECTION ( 'NONE',  ( 4.275831445896959482E-31, 1.000000000000000000, 1.224646799147353454E-16 ) ) ;
#188 = AXIS2_PLACEMENT_3D ( 'NONE', #241, #69, #51 ) ;
#189 = CC_DESIGN_PERSON_AND_ORGANIZATION_ASSIGNMENT ( #48, #84, ( #158 ) ) ;
#190 = CARTESIAN_POINT ( 'NONE',  ( 1.355631674873809072E-14, -1.026120467488710775, 3.882683432365082510 ) ) ;
#191 = CARTESIAN_POINT ( 'NONE',  ( 0.0000000000000000000, 0.0000000000000000000, 0.0000000000000000000 ) ) ;
#192 = CIRCLE ( 'NONE', #188, 1.026120467488710553 ) ;
#193 = APPROVAL_DATE_TIME ( #213, #11 ) ;
#194 = CC_DESIGN_SECURITY_CLASSIFICATION ( #158, ( #238 ) ) ;
#195 = PERSON_AND_ORGANIZATION_ROLE ( 'creator' ) ;
#196 = VERTEX_POINT ( 'NONE', #130 ) ;
#197 = DATE_AND_TIME ( #13, #182 ) ;
#198 = AXIS2_PLACEMENT_3D ( 'NONE', #191, #232, #82 ) ;
#199 = ORIENTED_EDGE ( 'NONE', *, *, #83, .F. ) ;
#200 = EDGE_LOOP ( 'NONE', ( #220 ) ) ;
#201 = CC_DESIGN_DATE_AND_TIME_ASSIGNMENT ( #212, #76, ( #204 ) ) ;
#202 = DIRECTION ( 'NONE',  ( 3.491481338843133355E-15, -1.238606396782300839E-16, 1.000000000000000000 ) ) ;
#203 = FACE_OUTER_BOUND ( 'NONE', #183, .T. ) ;
#204 = PRODUCT_DEFINITION ( 'UNKNOWN', '', #238, #9 ) ;
#205 = CYLINDRICAL_SURFACE ( 'NONE', #2, 1.999999999999998224 ) ;
#206 = FACE_OUTER_BOUND ( 'NONE', #86, .T. ) ;
#207 = PLANE ( 'NONE',  #77 ) ;
#208 = CC_DESIGN_DATE_AND_TIME_ASSIGNMENT ( #197, #114, ( #158 ) ) ;
#209 = AXIS2_PLACEMENT_3D ( 'NONE', #185, #202, #16 ) ;
#210 = VERTEX_POINT ( 'NONE', #149 ) ;
#211 = APPROVAL_ROLE ( '' ) ;
#212 = DATE_AND_TIME ( #97, #40 ) ;
#213 = DATE_AND_TIME ( #110, #67 ) ;
#214 = APPLICATION_CONTEXT ( 'configuration controlled 3d designs of mechanical parts and assemblies' ) ;
#215 = ADVANCED_FACE ( 'NONE', ( #144, #169 ), #61, .T. ) ;
#216 = ORIENTED_EDGE ( 'NONE', *, *, #170, .F. ) ;
#217 = SHAPE_DEFINITION_REPRESENTATION ( #242, #163 ) ;
#218 = COORDINATED_UNIVERSAL_TIME_OFFSET ( 1, 0, .AHEAD. ) ;
#219 = ORIENTED_EDGE ( 'NONE', *, *, #27, .T. ) ;
#220 = ORIENTED_EDGE ( 'NONE', *, *, #22, .F. ) ;
#221 =( GEOMETRIC_REPRESENTATION_CONTEXT ( 3 ) GLOBAL_UNCERTAINTY_ASSIGNED_CONTEXT ( ( #235 ) ) GLOBAL_UNIT_ASSIGNED_CONTEXT ( ( #28, #228, #58 ) ) REPRESENTATION_CONTEXT ( 'NONE', 'WORKASPACE' ) );
#222 = FACE_OUTER_BOUND ( 'NONE', #32, .T. ) ;
#223 = DIRECTION ( 'NONE',  ( 3.491481338843133355E-15, -1.238606396782300839E-16, 1.000000000000000000 ) ) ;
#224 = DIRECTION ( 'NONE',  ( 3.491481338843133355E-15, -1.224646799147353454E-16, 1.000000000000000000 ) ) ;
#225 = CC_DESIGN_APPROVAL ( #11, ( #238 ) ) ;
#226 = CARTESIAN_POINT ( 'NONE',  ( 1.222018468595096517E-14, -1.517883041479708969E-15, 3.499999999999999556 ) ) ;
#227 = DIRECTION ( 'NONE',  ( -3.491481338843133355E-15, 1.224646799147353454E-16, -1.000000000000000000 ) ) ;
#228 =( NAMED_UNIT ( * ) PLANE_ANGLE_UNIT ( ) SI_UNIT ( $, .RADIAN. ) );
#229 = APPLICATION_CONTEXT ( 'configuration controlled 3d designs of mechanical parts and assemblies' ) ;
#230 = CLOSED_SHELL ( 'NONE', ( #135, #47, #179 ) ) ;
#231 = COORDINATED_UNIVERSAL_TIME_OFFSET ( 1, 0, .AHEAD. ) ;
#232 = DIRECTION ( 'NONE',  ( 0.0000000000000000000, 0.0000000000000000000, 1.000000000000000000 ) ) ;
#233 = ADVANCED_FACE ( 'NONE', ( #203, #105 ), #81, .T. ) ;
#234 = SECURITY_CLASSIFICATION_LEVEL ( 'unclassified' ) ;
#235 = UNCERTAINTY_MEASURE_WITH_UNIT (LENGTH_MEASURE( 1.000000000000000082E-05 ), #28, 'distance_accuracy_value', 'NONE');
#236 = EDGE_LOOP ( 'NONE', ( #159 ) ) ;
#237 = CALENDAR_DATE ( 2021, 8, 11 ) ;
#238 = PRODUCT_DEFINITION_FORMATION_WITH_SPECIFIED_SOURCE ( 'ANY', '', #68, .NOT_KNOWN. ) ;
#239 = ORIENTED_EDGE ( 'NONE', *, *, #170, .T. ) ;
#240 = AXIS2_PLACEMENT_3D ( 'NONE', #107, #53, #71 ) ;
#241 = CARTESIAN_POINT ( 'NONE',  ( 1.355631674873809072E-14, -4.809116536008050611E-16, 3.882683432365082510 ) ) ;
#242 = PRODUCT_DEFINITION_SHAPE ( 'NONE', 'NONE',  #204 ) ;
#243 = FACE_OUTER_BOUND ( 'NONE', #66, .T. ) ;
ENDSEC;
END-ISO-10303-21;
