ISO-10303-21;
HEADER;
FILE_DESCRIPTION (( 'STEP AP203' ),
    '1' );
FILE_NAME ('987601.step',
    '2021-11-08T14:12:44',
    ( '' ),
    ( '' ),
    'SwSTEP 2.0',
    'SolidWorks 2019',
    '' );
FILE_SCHEMA (( 'CONFIG_CONTROL_DESIGN' ));
ENDSEC;

DATA;
#1 = SECURITY_CLASSIFICATION_LEVEL ( 'unclassified' ) ;
#2 = DIRECTION ( 'NONE',  ( 3.491481338843133355E-15, -1.238606396782300839E-16, 1.000000000000000000 ) ) ;
#3 = ORIENTED_EDGE ( 'NONE', *, *, #16, .F. ) ;
#4 = FACE_BOUND ( 'NONE', #55, .T. ) ;
#5 = AXIS2_PLACEMENT_3D ( 'NONE', #220, #236, #99 ) ;
#6 = FACE_OUTER_BOUND ( 'NONE', #167, .T. ) ;
#7 = PLANE ( 'NONE',  #140 ) ;
#8 = CARTESIAN_POINT ( 'NONE',  ( 1.222018468595096201E-14, -4.336808689942017736E-16, 3.499999999999998668 ) ) ;
#9 = CC_DESIGN_APPROVAL ( #232, ( #14 ) ) ;
#10 = FACE_OUTER_BOUND ( 'NONE', #187, .T. ) ;
#11 = FACE_OUTER_BOUND ( 'NONE', #91, .T. ) ;
#12 = PERSON ( 'UNSPECIFIED', 'UNSPECIFIED', 'UNSPECIFIED', ('UNSPECIFIED'), ('UNSPECIFIED'), ('UNSPECIFIED') ) ;
#13 = COORDINATED_UNIVERSAL_TIME_OFFSET ( 1, 0, .AHEAD. ) ;
#14 = SECURITY_CLASSIFICATION ( '', '', #1 ) ;
#15 = SHAPE_DEFINITION_REPRESENTATION ( #206, #198 ) ;
#16 = EDGE_CURVE ( 'NONE', #32, #32, #88, .T. ) ;
#17 = APPLICATION_PROTOCOL_DEFINITION ( 'international standard', 'config_control_design', 1994, #61 ) ;
#18 = APPROVAL ( #189, 'UNSPECIFIED' ) ;
#19 = DATE_AND_TIME ( #127, #124 ) ;
#20 = LOCAL_TIME ( 15, 12, 44.00000000000000000, #223 ) ;
#21 = DIRECTION ( 'NONE',  ( 4.275831445896958607E-31, 1.000000000000000000, 1.224646799147353454E-16 ) ) ;
#22 = EDGE_LOOP ( 'NONE', ( #89 ) ) ;
#23 = LOCAL_TIME ( 15, 12, 44.00000000000000000, #205 ) ;
#24 = ORIENTED_EDGE ( 'NONE', *, *, #108, .T. ) ;
#25 = AXIS2_PLACEMENT_3D ( 'NONE', #142, #235, #105 ) ;
#26 = FACE_OUTER_BOUND ( 'NONE', #22, .T. ) ;
#27 = DIRECTION ( 'NONE',  ( 3.491481338843133355E-15, -1.238606396782300839E-16, 1.000000000000000000 ) ) ;
#28 = ADVANCED_FACE ( 'NONE', ( #4, #57 ), #66, .T. ) ;
#29 = CARTESIAN_POINT ( 'NONE',  ( 1.208052543239724267E-13, 1.999999999999995781, 34.60000000000000853 ) ) ;
#30 = AXIS2_PLACEMENT_3D ( 'NONE', #203, #181, #62 ) ;
#31 = AXIS2_PLACEMENT_3D ( 'NONE', #95, #173, #192 ) ;
#32 = VERTEX_POINT ( 'NONE', #29 ) ;
#33 = CALENDAR_DATE ( 2021, 8, 11 ) ;
#34 = PERSON_AND_ORGANIZATION ( #12, #48 ) ;
#35 = PERSON_AND_ORGANIZATION ( #12, #48 ) ;
#36 = CC_DESIGN_PERSON_AND_ORGANIZATION_ASSIGNMENT ( #34, #129, ( #79 ) ) ;
#37 =( NAMED_UNIT ( * ) SI_UNIT ( $, .STERADIAN. ) SOLID_ANGLE_UNIT ( ) );
#38 = COORDINATED_UNIVERSAL_TIME_OFFSET ( 1, 0, .AHEAD. ) ;
#39 = LOCAL_TIME ( 15, 12, 44.00000000000000000, #38 ) ;
#40 = EDGE_LOOP ( 'NONE', ( #150 ) ) ;
#41 = EDGE_LOOP ( 'NONE', ( #51 ) ) ;
#42 = DIRECTION ( 'NONE',  ( 0.0000000000000000000, 1.000000000000000000, 0.0000000000000000000 ) ) ;
#43 = DESIGN_CONTEXT ( 'detailed design', #102, 'design' ) ;
#44 = FACE_BOUND ( 'NONE', #41, .T. ) ;
#45 = PLANE ( 'NONE',  #162 ) ;
#46 = FACE_OUTER_BOUND ( 'NONE', #116, .T. ) ;
#47 = DIRECTION ( 'NONE',  ( 0.0000000000000000000, -1.000000000000000000, 0.0000000000000000000 ) ) ;
#48 = ORGANIZATION ( 'UNSPECIFIED', 'UNSPECIFIED', '' ) ;
#49 = DIRECTION ( 'NONE',  ( 0.0000000000000000000, 1.000000000000000000, 0.0000000000000000000 ) ) ;
#50 = CALENDAR_DATE ( 2021, 8, 11 ) ;
#51 = ORIENTED_EDGE ( 'NONE', *, *, #218, .T. ) ;
#52 = PERSON_AND_ORGANIZATION ( #12, #48 ) ;
#53 = APPLICATION_PROTOCOL_DEFINITION ( 'international standard', 'config_control_design', 1994, #102 ) ;
#54 = APPROVAL_DATE_TIME ( #147, #138 ) ;
#55 = EDGE_LOOP ( 'NONE', ( #117 ) ) ;
#56 = CIRCLE ( 'NONE', #210, 0.8999999999999995781 ) ;
#57 = FACE_OUTER_BOUND ( 'NONE', #40, .T. ) ;
#58 = EDGE_LOOP ( 'NONE', ( #71 ) ) ;
#59 = FACE_OUTER_BOUND ( 'NONE', #229, .T. ) ;
#60 = AXIS2_PLACEMENT_3D ( 'NONE', #8, #201, #136 ) ;
#61 = APPLICATION_CONTEXT ( 'configuration controlled 3d designs of mechanical parts and assemblies' ) ;
#62 = DIRECTION ( 'NONE',  ( -4.324571120537136091E-31, -1.000000000000000000, -1.238606396782300839E-16 ) ) ;
#63 = CARTESIAN_POINT ( 'NONE',  ( 1.222018468595096517E-14, -1.517883041479708969E-15, 3.499999999999999556 ) ) ;
#64 = PLANE ( 'NONE',  #180 ) ;
#65 = DIRECTION ( 'NONE',  ( 0.0000000000000000000, -1.000000000000000000, 0.0000000000000000000 ) ) ;
#66 = CONICAL_SURFACE ( 'NONE', #93, 1.999999999999998668, 0.3926990816987178667 ) ;
#67 = DIRECTION ( 'NONE',  ( 3.491481338843133355E-15, -1.224646799147353454E-16, 1.000000000000000000 ) ) ;
#68 = PERSON_AND_ORGANIZATION_ROLE ( 'design_owner' ) ;
#69 = CALENDAR_DATE ( 2021, 8, 11 ) ;
#70 = CIRCLE ( 'NONE', #241, 0.8999999999999998002 ) ;
#71 = ORIENTED_EDGE ( 'NONE', *, *, #193, .F. ) ;
#72 = PERSON_AND_ORGANIZATION ( #12, #48 ) ;
#73 = MANIFOLD_SOLID_BREP ( 'Corps-Déplacer/Copier1[1]', #80 ) ;
#74 = MANIFOLD_SOLID_BREP ( 'Corps-Déplacer/Copier1[2]', #156 ) ;
#75 = EDGE_LOOP ( 'NONE', ( #3 ) ) ;
#76 = APPROVAL_STATUS ( 'not_yet_approved' ) ;
#77 = EDGE_LOOP ( 'NONE', ( #97 ) ) ;
#78 = CARTESIAN_POINT ( 'NONE',  ( 2.218678326583072633E-14, -7.870782917082951269E-16, 6.354547285990103767 ) ) ;
#79 = PRODUCT_DEFINITION_FORMATION_WITH_SPECIFIED_SOURCE ( 'ANY', '', #182, .NOT_KNOWN. ) ;
#80 = CLOSED_SHELL ( 'NONE', ( #98, #195, #146, #175, #28, #202 ) ) ;
#81 = DIRECTION ( 'NONE',  ( 3.491481338843133355E-15, -1.224646799147353454E-16, 1.000000000000000000 ) ) ;
#82 = AXIS2_PLACEMENT_3D ( 'NONE', #168, #224, #107 ) ;
#83 = EDGE_CURVE ( 'NONE', #85, #85, #141, .T. ) ;
#84 = PLANE ( 'NONE',  #25 ) ;
#85 = VERTEX_POINT ( 'NONE', #103 ) ;
#86 = CARTESIAN_POINT ( 'NONE',  ( -3.206893176761000815E-31, 1.124826709063586741E-32, -9.184907108292241390E-17 ) ) ;
#87 = DATE_AND_TIME ( #33, #23 ) ;
#88 = CIRCLE ( 'NONE', #114, 2.000000000000000000 ) ;
#89 = ORIENTED_EDGE ( 'NONE', *, *, #108, .F. ) ;
#90 = PERSON_AND_ORGANIZATION ( #12, #48 ) ;
#91 = EDGE_LOOP ( 'NONE', ( #24 ) ) ;
#92 = VERTEX_POINT ( 'NONE', #222 ) ;
#93 = AXIS2_PLACEMENT_3D ( 'NONE', #78, #132, #230 ) ;
#94 =( LENGTH_UNIT ( ) NAMED_UNIT ( * ) SI_UNIT ( .MILLI., .METRE. ) );
#95 = CARTESIAN_POINT ( 'NONE',  ( 1.355631674873809072E-14, -4.809116536008050611E-16, 3.882683432365082510 ) ) ;
#96 = ORIENTED_EDGE ( 'NONE', *, *, #16, .T. ) ;
#97 = ORIENTED_EDGE ( 'NONE', *, *, #218, .F. ) ;
#98 = ADVANCED_FACE ( 'NONE', ( #131, #59 ), #133, .T. ) ;
#99 = DIRECTION ( 'NONE',  ( 0.0000000000000000000, 1.000000000000000000, 0.0000000000000000000 ) ) ;
#100 = COORDINATED_UNIVERSAL_TIME_OFFSET ( 1, 0, .AHEAD. ) ;
#101 = FACE_OUTER_BOUND ( 'NONE', #154, .T. ) ;
#102 = APPLICATION_CONTEXT ( 'configuration controlled 3d designs of mechanical parts and assemblies' ) ;
#103 = CARTESIAN_POINT ( 'NONE',  ( 1.355631674873809072E-14, -0.9761204674887107302, 3.882683432365082510 ) ) ;
#104 = CC_DESIGN_SECURITY_CLASSIFICATION ( #14, ( #79 ) ) ;
#105 = DIRECTION ( 'NONE',  ( 4.275831445896959482E-31, 1.000000000000000000, 1.224646799147353454E-16 ) ) ;
#106 = VERTEX_POINT ( 'NONE', #233 ) ;
#107 = DIRECTION ( 'NONE',  ( 1.000000000000000000, 0.0000000000000000000, 0.0000000000000000000 ) ) ;
#108 = EDGE_CURVE ( 'NONE', #216, #216, #70, .T. ) ;
#109 = CC_DESIGN_DATE_AND_TIME_ASSIGNMENT ( #19, #207, ( #186 ) ) ;
#110 = VERTEX_POINT ( 'NONE', #145 ) ;
#111 = EDGE_CURVE ( 'NONE', #178, #178, #221, .T. ) ;
#112 = APPROVAL_STATUS ( 'not_yet_approved' ) ;
#113 = CONICAL_SURFACE ( 'NONE', #5, 1.600000000000000089, 0.7853981633974512766 ) ;
#114 = AXIS2_PLACEMENT_3D ( 'NONE', #174, #213, #42 ) ;
#115 = CARTESIAN_POINT ( 'NONE',  ( 0.0000000000000000000, 0.0000000000000000000, 0.0000000000000000000 ) ) ;
#116 = EDGE_LOOP ( 'NONE', ( #194 ) ) ;
#117 = ORIENTED_EDGE ( 'NONE', *, *, #83, .T. ) ;
#118 = CC_DESIGN_APPROVAL ( #18, ( #186 ) ) ;
#119 = DIRECTION ( 'NONE',  ( -4.275831445896959482E-31, -1.000000000000000000, -1.224646799147353454E-16 ) ) ;
#120 = AXIS2_PLACEMENT_3D ( 'NONE', #123, #219, #49 ) ;
#121 = CYLINDRICAL_SURFACE ( 'NONE', #30, 0.8999999999999996891 ) ;
#122 = FACE_OUTER_BOUND ( 'NONE', #77, .T. ) ;
#123 = CARTESIAN_POINT ( 'NONE',  ( 1.222018468595096801E-13, -4.286263797015737285E-15, 35.00000000000000000 ) ) ;
#124 = LOCAL_TIME ( 15, 12, 44.00000000000000000, #13 ) ;
#125 = DIRECTION ( 'NONE',  ( 0.0000000000000000000, -1.000000000000000000, 0.0000000000000000000 ) ) ;
#126 = PERSON_AND_ORGANIZATION_ROLE ( 'classification_officer' ) ;
#127 = CALENDAR_DATE ( 2021, 8, 11 ) ;
#128 = ADVANCED_FACE ( 'NONE', ( #238 ), #45, .F. ) ;
#129 = PERSON_AND_ORGANIZATION_ROLE ( 'creator' ) ;
#130 =( NAMED_UNIT ( * ) PLANE_ANGLE_UNIT ( ) SI_UNIT ( $, .RADIAN. ) );
#131 = FACE_OUTER_BOUND ( 'NONE', #196, .T. ) ;
#132 = DIRECTION ( 'NONE',  ( 3.491481338843133355E-15, -1.238606396782300839E-16, 1.000000000000000000 ) ) ;
#133 = CYLINDRICAL_SURFACE ( 'NONE', #190, 1.999999999999998224 ) ;
#134 = TOROIDAL_SURFACE ( 'NONE', #60, 1.899999999999999689, 1.000000000000000000 ) ;
#135 = CC_DESIGN_PERSON_AND_ORGANIZATION_ASSIGNMENT ( #209, #184, ( #186 ) ) ;
#136 = DIRECTION ( 'NONE',  ( -4.416141101238031677E-31, -1.000000000000000000, -1.238606396782300839E-16 ) ) ;
#137 = CARTESIAN_POINT ( 'NONE',  ( 1.222018468595096517E-14, -1.517883041479708969E-15, 3.499999999999999556 ) ) ;
#138 = APPROVAL ( #112, 'UNSPECIFIED' ) ;
#139 = CARTESIAN_POINT ( 'NONE',  ( -3.892114008483421081E-31, -8.945657141013687381E-33, -1.114745757104070164E-16 ) ) ;
#140 = AXIS2_PLACEMENT_3D ( 'NONE', #63, #81, #204 ) ;
#141 = CIRCLE ( 'NONE', #31, 0.9761204674887102861 ) ;
#142 = CARTESIAN_POINT ( 'NONE',  ( 1.222018468595096801E-13, 1.199807826129480202E-32, 35.00000000000000000 ) ) ;
#143 = DATE_TIME_ROLE ( 'classification_date' ) ;
#144 = CALENDAR_DATE ( 2021, 8, 11 ) ;
#145 = CARTESIAN_POINT ( 'NONE',  ( -7.784228016966842161E-31, -0.8999999999999995781, -2.229491514208140328E-16 ) ) ;
#146 = ADVANCED_FACE ( 'NONE', ( #122 ), #84, .F. ) ;
#147 = DATE_AND_TIME ( #69, #20 ) ;
#148 = ADVANCED_FACE ( 'NONE', ( #11 ), #7, .T. ) ;
#149 = APPROVAL_DATE_TIME ( #185, #18 ) ;
#150 = ORIENTED_EDGE ( 'NONE', *, *, #111, .F. ) ;
#151 = APPROVAL_ROLE ( '' ) ;
#152 = LOCAL_TIME ( 15, 12, 44.00000000000000000, #100 ) ;
#153 = ORIENTED_EDGE ( 'NONE', *, *, #111, .T. ) ;
#154 = EDGE_LOOP ( 'NONE', ( #228 ) ) ;
#155 = APPROVAL_PERSON_ORGANIZATION ( #52, #232, #151 ) ;
#156 = CLOSED_SHELL ( 'NONE', ( #148, #234, #128 ) ) ;
#157 = DIRECTION ( 'NONE',  ( 3.491481338843133355E-15, -1.238606396782300839E-16, 1.000000000000000000 ) ) ;
#158 = DIRECTION ( 'NONE',  ( -4.275831445896959482E-31, -1.000000000000000000, -1.224646799147353454E-16 ) ) ;
#159 = FACE_OUTER_BOUND ( 'NONE', #75, .T. ) ;
#160 = CARTESIAN_POINT ( 'NONE',  ( 2.218678326583072633E-14, -1.999999999999999556, 6.354547285990103767 ) ) ;
#161 = DIRECTION ( 'NONE',  ( -4.324571120537136967E-31, -1.000000000000000000, -1.238606396782300839E-16 ) ) ;
#162 = AXIS2_PLACEMENT_3D ( 'NONE', #86, #67, #158 ) ;
#163 = PERSON_AND_ORGANIZATION ( #12, #48 ) ;
#164 = EDGE_CURVE ( 'NONE', #106, #106, #169, .T. ) ;
#165 = MECHANICAL_CONTEXT ( 'NONE', #61, 'mechanical' ) ;
#166 = APPROVAL_ROLE ( '' ) ;
#167 = EDGE_LOOP ( 'NONE', ( #211 ) ) ;
#168 = CARTESIAN_POINT ( 'NONE',  ( 0.0000000000000000000, 0.0000000000000000000, 0.0000000000000000000 ) ) ;
#169 = CIRCLE ( 'NONE', #239, 0.8999999999999998002 ) ;
#170 = CC_DESIGN_DATE_AND_TIME_ASSIGNMENT ( #87, #143, ( #14 ) ) ;
#171 = APPROVAL_ROLE ( '' ) ;
#172 = CARTESIAN_POINT ( 'NONE',  ( 1.222018468595096359E-14, -4.335122388738052198E-16, 3.499999999999999112 ) ) ;
#173 = DIRECTION ( 'NONE',  ( 3.491481338843133355E-15, -1.238606396782300839E-16, 1.000000000000000000 ) ) ;
#174 = CARTESIAN_POINT ( 'NONE',  ( 1.208052543239724267E-13, -4.237277925049843857E-15, 34.60000000000000853 ) ) ;
#175 = ADVANCED_FACE ( 'NONE', ( #101, #10 ), #134, .F. ) ;
#176 = CC_DESIGN_PERSON_AND_ORGANIZATION_ASSIGNMENT ( #225, #191, ( #79 ) ) ;
#177 = APPROVAL_PERSON_ORGANIZATION ( #90, #18, #171 ) ;
#178 = VERTEX_POINT ( 'NONE', #160 ) ;
#179 = CARTESIAN_POINT ( 'NONE',  ( 1.222018468595096359E-14, -0.9000000000000002442, 3.499999999999999112 ) ) ;
#180 = AXIS2_PLACEMENT_3D ( 'NONE', #137, #217, #119 ) ;
#181 = DIRECTION ( 'NONE',  ( 3.491481338843133355E-15, -1.238606396782300839E-16, 1.000000000000000000 ) ) ;
#182 = PRODUCT ( '987601', '987601', '', ( #165 ) ) ;
#183 = DIRECTION ( 'NONE',  ( 3.491481338843133355E-15, -1.238606396782300839E-16, 1.000000000000000000 ) ) ;
#184 = PERSON_AND_ORGANIZATION_ROLE ( 'creator' ) ;
#185 = DATE_AND_TIME ( #50, #39 ) ;
#186 = PRODUCT_DEFINITION ( 'UNKNOWN', '', #79, #43 ) ;
#187 = EDGE_LOOP ( 'NONE', ( #243 ) ) ;
#188 = PRODUCT_RELATED_PRODUCT_CATEGORY ( 'detail', '', ( #182 ) ) ;
#189 = APPROVAL_STATUS ( 'not_yet_approved' ) ;
#190 = AXIS2_PLACEMENT_3D ( 'NONE', #115, #212, #21 ) ;
#191 = PERSON_AND_ORGANIZATION_ROLE ( 'design_supplier' ) ;
#192 = DIRECTION ( 'NONE',  ( 0.0000000000000000000, -1.000000000000000000, 0.0000000000000000000 ) ) ;
#193 = EDGE_CURVE ( 'NONE', #110, #110, #56, .T. ) ;
#194 = ORIENTED_EDGE ( 'NONE', *, *, #193, .T. ) ;
#195 = ADVANCED_FACE ( 'NONE', ( #159, #44 ), #113, .T. ) ;
#196 = EDGE_LOOP ( 'NONE', ( #96 ) ) ;
#197 =( GEOMETRIC_REPRESENTATION_CONTEXT ( 3 ) GLOBAL_UNCERTAINTY_ASSIGNED_CONTEXT ( ( #215 ) ) GLOBAL_UNIT_ASSIGNED_CONTEXT ( ( #94, #130, #37 ) ) REPRESENTATION_CONTEXT ( 'NONE', 'WORKASPACE' ) );
#198 = ADVANCED_BREP_SHAPE_REPRESENTATION ( '987601', ( #73, #74, #82 ), #197 ) ;
#199 = CC_DESIGN_APPROVAL ( #138, ( #79 ) ) ;
#200 = CARTESIAN_POINT ( 'NONE',  ( 1.222018468595096359E-14, -4.335122388738052198E-16, 3.499999999999999112 ) ) ;
#201 = DIRECTION ( 'NONE',  ( 3.491481338843133355E-15, -1.238606396782300839E-16, 1.000000000000000000 ) ) ;
#202 = ADVANCED_FACE ( 'NONE', ( #6 ), #64, .F. ) ;
#203 = CARTESIAN_POINT ( 'NONE',  ( -6.413786353522001631E-31, 0.0000000000000000000, -1.836981421658448278E-16 ) ) ;
#204 = DIRECTION ( 'NONE',  ( -4.275831445896959482E-31, -1.000000000000000000, -1.224646799147353454E-16 ) ) ;
#205 = COORDINATED_UNIVERSAL_TIME_OFFSET ( 1, 0, .AHEAD. ) ;
#206 = PRODUCT_DEFINITION_SHAPE ( 'NONE', 'NONE',  #186 ) ;
#207 = DATE_TIME_ROLE ( 'creation_date' ) ;
#208 = APPROVAL_DATE_TIME ( #242, #232 ) ;
#209 = PERSON_AND_ORGANIZATION ( #12, #48 ) ;
#210 = AXIS2_PLACEMENT_3D ( 'NONE', #139, #183, #161 ) ;
#211 = ORIENTED_EDGE ( 'NONE', *, *, #164, .F. ) ;
#212 = DIRECTION ( 'NONE',  ( -3.491481338843133355E-15, 1.224646799147353454E-16, -1.000000000000000000 ) ) ;
#213 = DIRECTION ( 'NONE',  ( -3.491481338843133355E-15, 1.224646799147353454E-16, -1.000000000000000000 ) ) ;
#214 = CIRCLE ( 'NONE', #120, 1.600000000000000089 ) ;
#215 = UNCERTAINTY_MEASURE_WITH_UNIT (LENGTH_MEASURE( 1.000000000000000082E-05 ), #94, 'distance_accuracy_value', 'NONE');
#216 = VERTEX_POINT ( 'NONE', #179 ) ;
#217 = DIRECTION ( 'NONE',  ( 3.491481338843133355E-15, -1.224646799147353454E-16, 1.000000000000000000 ) ) ;
#218 = EDGE_CURVE ( 'NONE', #92, #92, #214, .T. ) ;
#219 = DIRECTION ( 'NONE',  ( -3.491481338843133355E-15, 1.224646799147353454E-16, -1.000000000000000000 ) ) ;
#220 = CARTESIAN_POINT ( 'NONE',  ( 1.222018468595096801E-13, -4.286263797015737285E-15, 35.00000000000000000 ) ) ;
#221 = CIRCLE ( 'NONE', #231, 1.999999999999998668 ) ;
#222 = CARTESIAN_POINT ( 'NONE',  ( 1.222018468595096801E-13, 1.599999999999995648, 35.00000000000000000 ) ) ;
#223 = COORDINATED_UNIVERSAL_TIME_OFFSET ( 1, 0, .AHEAD. ) ;
#224 = DIRECTION ( 'NONE',  ( 0.0000000000000000000, 0.0000000000000000000, 1.000000000000000000 ) ) ;
#225 = PERSON_AND_ORGANIZATION ( #12, #48 ) ;
#226 = CC_DESIGN_PERSON_AND_ORGANIZATION_ASSIGNMENT ( #72, #126, ( #14 ) ) ;
#227 = APPROVAL_PERSON_ORGANIZATION ( #35, #138, #166 ) ;
#228 = ORIENTED_EDGE ( 'NONE', *, *, #164, .T. ) ;
#229 = EDGE_LOOP ( 'NONE', ( #153 ) ) ;
#230 = DIRECTION ( 'NONE',  ( 0.0000000000000000000, -1.000000000000000000, 0.0000000000000000000 ) ) ;
#231 = AXIS2_PLACEMENT_3D ( 'NONE', #237, #157, #125 ) ;
#232 = APPROVAL ( #76, 'UNSPECIFIED' ) ;
#233 = CARTESIAN_POINT ( 'NONE',  ( 1.222018468595096359E-14, -0.9000000000000002442, 3.499999999999999112 ) ) ;
#234 = ADVANCED_FACE ( 'NONE', ( #46, #26 ), #121, .T. ) ;
#235 = DIRECTION ( 'NONE',  ( -3.491481338843133355E-15, 1.224646799147353454E-16, -1.000000000000000000 ) ) ;
#236 = DIRECTION ( 'NONE',  ( -3.491481338843133355E-15, 1.224646799147353454E-16, -1.000000000000000000 ) ) ;
#237 = CARTESIAN_POINT ( 'NONE',  ( 2.218678326583072633E-14, -7.870782917082951269E-16, 6.354547285990103767 ) ) ;
#238 = FACE_OUTER_BOUND ( 'NONE', #58, .T. ) ;
#239 = AXIS2_PLACEMENT_3D ( 'NONE', #200, #27, #65 ) ;
#240 = CC_DESIGN_PERSON_AND_ORGANIZATION_ASSIGNMENT ( #163, #68, ( #182 ) ) ;
#241 = AXIS2_PLACEMENT_3D ( 'NONE', #172, #2, #47 ) ;
#242 = DATE_AND_TIME ( #144, #152 ) ;
#243 = ORIENTED_EDGE ( 'NONE', *, *, #83, .F. ) ;
ENDSEC;
END-ISO-10303-21;
