ISO-10303-21;
HEADER;
FILE_DESCRIPTION (( 'STEP AP203' ),
    '1' );
FILE_NAME ('987600.step',
    '2021-11-08T14:12:43',
    ( '' ),
    ( '' ),
    'SwSTEP 2.0',
    'SolidWorks 2019',
    '' );
FILE_SCHEMA (( 'CONFIG_CONTROL_DESIGN' ));
ENDSEC;

DATA;
#1 = DIRECTION ( 'NONE',  ( -3.491481338843133355E-15, 1.224646799147353454E-16, -1.000000000000000000 ) ) ;
#2 = PRODUCT_RELATED_PRODUCT_CATEGORY ( 'detail', '', ( #235 ) ) ;
#3 = CARTESIAN_POINT ( 'NONE',  ( 1.355631674873811754E-14, -0.8261204674887137056, 3.882683432365090059 ) ) ;
#4 =( NAMED_UNIT ( * ) SI_UNIT ( $, .STERADIAN. ) SOLID_ANGLE_UNIT ( ) );
#5 = ORIENTED_EDGE ( 'NONE', *, *, #282, .F. ) ;
#6 = ORIENTED_EDGE ( 'NONE', *, *, #254, .F. ) ;
#7 = CC_DESIGN_SECURITY_CLASSIFICATION ( #42, ( #140 ) ) ;
#8 = AXIS2_PLACEMENT_3D ( 'NONE', #46, #154, #44 ) ;
#9 = ORIENTED_EDGE ( 'NONE', *, *, #142, .T. ) ;
#10 = APPROVAL_ROLE ( '' ) ;
#11 = EDGE_LOOP ( 'NONE', ( #95 ) ) ;
#12 = MECHANICAL_CONTEXT ( 'NONE', #214, 'mechanical' ) ;
#13 = EDGE_LOOP ( 'NONE', ( #5 ) ) ;
#14 = LOCAL_TIME ( 15, 12, 43.00000000000000000, #149 ) ;
#15 = APPROVAL_ROLE ( '' ) ;
#16 = EDGE_LOOP ( 'NONE', ( #213 ) ) ;
#17 = DATE_AND_TIME ( #243, #52 ) ;
#18 = ADVANCED_FACE ( 'NONE', ( #39 ), #97, .T. ) ;
#19 = EDGE_LOOP ( 'NONE', ( #61 ) ) ;
#20 = FACE_OUTER_BOUND ( 'NONE', #174, .T. ) ;
#21 = CIRCLE ( 'NONE', #245, 1.633974596215562514 ) ;
#22 = CARTESIAN_POINT ( 'NONE',  ( 1.222018468595096359E-14, -4.336808689942017736E-16, 3.499999999999999112 ) ) ;
#23 = DIRECTION ( 'NONE',  ( 0.0000000000000000000, -1.000000000000000000, 0.0000000000000000000 ) ) ;
#24 = CARTESIAN_POINT ( 'NONE',  ( 1.222018468595096801E-13, -4.286263797015737285E-15, 35.00000000000000000 ) ) ;
#25 =( GEOMETRIC_REPRESENTATION_CONTEXT ( 3 ) GLOBAL_UNCERTAINTY_ASSIGNED_CONTEXT ( ( #54 ) ) GLOBAL_UNIT_ASSIGNED_CONTEXT ( ( #277, #160, #4 ) ) REPRESENTATION_CONTEXT ( 'NONE', 'WORKASPACE' ) );
#26 = DIRECTION ( 'NONE',  ( 3.491481338843133355E-15, -1.198223107250220118E-16, 1.000000000000000000 ) ) ;
#27 = CARTESIAN_POINT ( 'NONE',  ( 2.665387984388915759E-14, -1.999999999999999556, 7.633974596215556296 ) ) ;
#28 = CARTESIAN_POINT ( 'NONE',  ( 1.355631674873811754E-14, -4.652321006797447626E-16, 3.882683432365090059 ) ) ;
#29 = VERTEX_POINT ( 'NONE', #143 ) ;
#30 = ADVANCED_FACE ( 'NONE', ( #65, #146 ), #64, .T. ) ;
#31 = EDGE_LOOP ( 'NONE', ( #53 ) ) ;
#32 = ADVANCED_FACE ( 'NONE', ( #104, #286 ), #263, .T. ) ;
#33 = DESIGN_CONTEXT ( 'detailed design', #276, 'design' ) ;
#34 = APPROVAL_PERSON_ORGANIZATION ( #147, #80, #62 ) ;
#35 = EDGE_LOOP ( 'NONE', ( #223 ) ) ;
#36 = CC_DESIGN_DATE_AND_TIME_ASSIGNMENT ( #173, #264, ( #42 ) ) ;
#37 = ORIENTED_EDGE ( 'NONE', *, *, #131, .F. ) ;
#38 = PERSON_AND_ORGANIZATION ( #267, #302 ) ;
#39 = FACE_OUTER_BOUND ( 'NONE', #217, .T. ) ;
#40 = APPROVAL_DATE_TIME ( #123, #75 ) ;
#41 = ORIENTED_EDGE ( 'NONE', *, *, #161, .T. ) ;
#42 = SECURITY_CLASSIFICATION ( '', '', #82 ) ;
#43 = CARTESIAN_POINT ( 'NONE',  ( 0.0000000000000000000, 0.0000000000000000000, 0.0000000000000000000 ) ) ;
#44 = DIRECTION ( 'NONE',  ( 4.275831445896959482E-31, 1.000000000000000000, 1.224646799147353454E-16 ) ) ;
#45 = DIRECTION ( 'NONE',  ( -3.491481338843133355E-15, 1.224646799147353454E-16, -1.000000000000000000 ) ) ;
#46 = CARTESIAN_POINT ( 'NONE',  ( 1.222018468595096801E-13, 1.199807826129480202E-32, 35.00000000000000000 ) ) ;
#47 = DIRECTION ( 'NONE',  ( 3.491481338843133355E-15, -1.224646799147353454E-16, 1.000000000000000000 ) ) ;
#48 = CONICAL_SURFACE ( 'NONE', #287, 1.600000000000000089, 0.7853981633974512766 ) ;
#49 = DIRECTION ( 'NONE',  ( 3.491481338843133355E-15, -1.198223107250220118E-16, 1.000000000000000000 ) ) ;
#50 = APPLICATION_PROTOCOL_DEFINITION ( 'international standard', 'config_control_design', 1994, #214 ) ;
#51 = CIRCLE ( 'NONE', #121, 0.7500000000000002220 ) ;
#52 = LOCAL_TIME ( 15, 12, 43.00000000000000000, #151 ) ;
#53 = ORIENTED_EDGE ( 'NONE', *, *, #254, .T. ) ;
#54 = UNCERTAINTY_MEASURE_WITH_UNIT (LENGTH_MEASURE( 1.000000000000000082E-05 ), #277, 'distance_accuracy_value', 'NONE');
#55 = CC_DESIGN_PERSON_AND_ORGANIZATION_ASSIGNMENT ( #201, #262, ( #140 ) ) ;
#56 = EDGE_LOOP ( 'NONE', ( #295 ) ) ;
#57 = PERSON_AND_ORGANIZATION ( #267, #302 ) ;
#58 = FACE_OUTER_BOUND ( 'NONE', #216, .T. ) ;
#59 = PERSON_AND_ORGANIZATION ( #267, #302 ) ;
#60 = ADVANCED_FACE ( 'NONE', ( #58, #148 ), #236, .F. ) ;
#61 = ORIENTED_EDGE ( 'NONE', *, *, #269, .F. ) ;
#62 = APPROVAL_ROLE ( '' ) ;
#63 = ORIENTED_EDGE ( 'NONE', *, *, #93, .F. ) ;
#64 = CONICAL_SURFACE ( 'NONE', #180, 1.500000000000000666, 0.3926990816987253052 ) ;
#65 = FACE_BOUND ( 'NONE', #94, .T. ) ;
#66 = DIRECTION ( 'NONE',  ( 3.491481338843133355E-15, -1.198223107250220118E-16, 1.000000000000000000 ) ) ;
#67 = FACE_OUTER_BOUND ( 'NONE', #13, .T. ) ;
#68 = DIRECTION ( 'NONE',  ( 3.491481338843133355E-15, -1.198223107250220118E-16, 1.000000000000000000 ) ) ;
#69 = DIRECTION ( 'NONE',  ( -4.275831445896959482E-31, -1.000000000000000000, -1.224646799147353454E-16 ) ) ;
#70 = VERTEX_POINT ( 'NONE', #74 ) ;
#71 = AXIS2_PLACEMENT_3D ( 'NONE', #153, #112, #136 ) ;
#72 = CC_DESIGN_PERSON_AND_ORGANIZATION_ASSIGNMENT ( #59, #170, ( #42 ) ) ;
#73 = ADVANCED_FACE ( 'NONE', ( #127, #81 ), #169, .T. ) ;
#74 = CARTESIAN_POINT ( 'NONE',  ( 1.222018468595096801E-13, 1.599999999999995648, 35.00000000000000000 ) ) ;
#75 = APPROVAL ( #196, 'UNSPECIFIED' ) ;
#76 = ORIENTED_EDGE ( 'NONE', *, *, #269, .T. ) ;
#77 = PERSON_AND_ORGANIZATION ( #267, #302 ) ;
#78 = ORIENTED_EDGE ( 'NONE', *, *, #282, .T. ) ;
#79 = DATE_TIME_ROLE ( 'creation_date' ) ;
#80 = APPROVAL ( #98, 'UNSPECIFIED' ) ;
#81 = FACE_OUTER_BOUND ( 'NONE', #83, .T. ) ;
#82 = SECURITY_CLASSIFICATION_LEVEL ( 'unclassified' ) ;
#83 = EDGE_LOOP ( 'NONE', ( #99 ) ) ;
#84 = CALENDAR_DATE ( 2021, 8, 11 ) ;
#85 = CARTESIAN_POINT ( 'NONE',  ( 1.222018468595096517E-14, -1.517883041479708969E-15, 3.499999999999999556 ) ) ;
#86 = EDGE_CURVE ( 'NONE', #183, #183, #51, .T. ) ;
#87 = DIRECTION ( 'NONE',  ( -4.183573618734778004E-31, -1.000000000000000000, -1.198223107250220118E-16 ) ) ;
#88 = FACE_OUTER_BOUND ( 'NONE', #237, .T. ) ;
#89 = AXIS2_PLACEMENT_3D ( 'NONE', #303, #111, #204 ) ;
#90 = PLANE ( 'NONE',  #8 ) ;
#91 = DIRECTION ( 'NONE',  ( 0.0000000000000000000, -1.000000000000000000, 0.0000000000000000000 ) ) ;
#92 = VERTEX_POINT ( 'NONE', #3 ) ;
#93 = EDGE_CURVE ( 'NONE', #279, #279, #203, .T. ) ;
#94 = EDGE_LOOP ( 'NONE', ( #78 ) ) ;
#95 = ORIENTED_EDGE ( 'NONE', *, *, #131, .T. ) ;
#96 = AXIS2_PLACEMENT_3D ( 'NONE', #178, #157, #87 ) ;
#97 = PLANE ( 'NONE',  #189 ) ;
#98 = APPROVAL_STATUS ( 'not_yet_approved' ) ;
#99 = ORIENTED_EDGE ( 'NONE', *, *, #142, .F. ) ;
#100 = APPROVAL_PERSON_ORGANIZATION ( #219, #75, #15 ) ;
#101 = EDGE_LOOP ( 'NONE', ( #6 ) ) ;
#102 = AXIS2_PLACEMENT_3D ( 'NONE', #22, #66, #249 ) ;
#103 = COORDINATED_UNIVERSAL_TIME_OFFSET ( 1, 0, .AHEAD. ) ;
#104 = FACE_OUTER_BOUND ( 'NONE', #11, .T. ) ;
#105 = APPROVAL_DATE_TIME ( #17, #80 ) ;
#106 = DIRECTION ( 'NONE',  ( -4.183573618734778879E-31, -1.000000000000000000, -1.198223107250220364E-16 ) ) ;
#107 = DIRECTION ( 'NONE',  ( 1.000000000000000000, 0.0000000000000000000, 0.0000000000000000000 ) ) ;
#108 = FACE_OUTER_BOUND ( 'NONE', #268, .T. ) ;
#109 = CIRCLE ( 'NONE', #152, 0.8261204674887132615 ) ;
#110 = ADVANCED_FACE ( 'NONE', ( #270, #225 ), #185, .T. ) ;
#111 = DIRECTION ( 'NONE',  ( 3.491481338843133355E-15, -1.198223107250220118E-16, 1.000000000000000000 ) ) ;
#112 = DIRECTION ( 'NONE',  ( 3.491481338843133355E-15, -1.198223107250220118E-16, 1.000000000000000000 ) ) ;
#113 = FACE_OUTER_BOUND ( 'NONE', #35, .T. ) ;
#114 = LOCAL_TIME ( 15, 12, 43.00000000000000000, #289 ) ;
#115 = TOROIDAL_SURFACE ( 'NONE', #102, 1.750000000000000222, 1.000000000000000000 ) ;
#116 = AXIS2_PLACEMENT_3D ( 'NONE', #206, #138, #227 ) ;
#117 = CARTESIAN_POINT ( 'NONE',  ( 1.222018468595096359E-14, -4.193780875375769672E-16, 3.499999999999999112 ) ) ;
#118 = VERTEX_POINT ( 'NONE', #212 ) ;
#119 = VERTEX_POINT ( 'NONE', #258 ) ;
#120 = AXIS2_PLACEMENT_3D ( 'NONE', #85, #274, #69 ) ;
#121 = AXIS2_PLACEMENT_3D ( 'NONE', #117, #224, #176 ) ;
#122 = EDGE_LOOP ( 'NONE', ( #63 ) ) ;
#123 = DATE_AND_TIME ( #84, #114 ) ;
#124 = ADVANCED_FACE ( 'NONE', ( #248, #67 ), #115, .F. ) ;
#125 = EDGE_LOOP ( 'NONE', ( #221 ) ) ;
#126 = PERSON_AND_ORGANIZATION_ROLE ( 'design_owner' ) ;
#127 = FACE_OUTER_BOUND ( 'NONE', #259, .T. ) ;
#128 = APPROVAL_DATE_TIME ( #134, #186 ) ;
#129 = AXIS2_PLACEMENT_3D ( 'NONE', #260, #285, #107 ) ;
#130 = DIRECTION ( 'NONE',  ( 3.491481338843133355E-15, -1.198223107250220118E-16, 1.000000000000000000 ) ) ;
#131 = EDGE_CURVE ( 'NONE', #162, #162, #231, .T. ) ;
#132 = PERSON_AND_ORGANIZATION ( #267, #302 ) ;
#133 = DIRECTION ( 'NONE',  ( 3.491481338843133355E-15, -1.198223107250220118E-16, 1.000000000000000000 ) ) ;
#134 = DATE_AND_TIME ( #292, #229 ) ;
#135 = DIRECTION ( 'NONE',  ( 3.491481338843133355E-15, -1.198223107250220118E-16, 1.000000000000000000 ) ) ;
#136 = DIRECTION ( 'NONE',  ( 0.0000000000000000000, -1.000000000000000000, 0.0000000000000000000 ) ) ;
#137 = CARTESIAN_POINT ( 'NONE',  ( 1.208052543239724267E-13, -4.237277925049843857E-15, 34.60000000000000853 ) ) ;
#138 = DIRECTION ( 'NONE',  ( -3.491481338843133355E-15, 1.224646799147353454E-16, -1.000000000000000000 ) ) ;
#139 = DIRECTION ( 'NONE',  ( 0.0000000000000000000, 1.000000000000000000, 0.0000000000000000000 ) ) ;
#140 = PRODUCT_DEFINITION_FORMATION_WITH_SPECIFIED_SOURCE ( 'ANY', '', #235, .NOT_KNOWN. ) ;
#141 = CIRCLE ( 'NONE', #89, 1.500000000000000666 ) ;
#142 = EDGE_CURVE ( 'NONE', #232, #232, #141, .T. ) ;
#143 = CARTESIAN_POINT ( 'NONE',  ( 1.222018468595096359E-14, -0.7500000000000006661, 3.499999999999999112 ) ) ;
#144 = CIRCLE ( 'NONE', #266, 1.600000000000000089 ) ;
#145 = AXIS2_PLACEMENT_3D ( 'NONE', #172, #195, #218 ) ;
#146 = FACE_OUTER_BOUND ( 'NONE', #19, .T. ) ;
#147 = PERSON_AND_ORGANIZATION ( #267, #302 ) ;
#148 = FACE_OUTER_BOUND ( 'NONE', #184, .T. ) ;
#149 = COORDINATED_UNIVERSAL_TIME_OFFSET ( 1, 0, .AHEAD. ) ;
#150 = CARTESIAN_POINT ( 'NONE',  ( 1.222018468595096517E-14, -1.517883041479708969E-15, 3.499999999999999556 ) ) ;
#151 = COORDINATED_UNIVERSAL_TIME_OFFSET ( 1, 0, .AHEAD. ) ;
#152 = AXIS2_PLACEMENT_3D ( 'NONE', #28, #49, #187 ) ;
#153 = CARTESIAN_POINT ( 'NONE',  ( 2.665387984388915759E-14, -9.147204761346649015E-16, 7.633974596215556296 ) ) ;
#154 = DIRECTION ( 'NONE',  ( -3.491481338843133355E-15, 1.224646799147353454E-16, -1.000000000000000000 ) ) ;
#155 = CC_DESIGN_APPROVAL ( #186, ( #140 ) ) ;
#156 = CARTESIAN_POINT ( 'NONE',  ( 2.665387984388915759E-14, -9.147204761346649015E-16, 7.633974596215556296 ) ) ;
#157 = DIRECTION ( 'NONE',  ( 3.491481338843133355E-15, -1.198223107250220118E-16, 1.000000000000000000 ) ) ;
#158 = CARTESIAN_POINT ( 'NONE',  ( 1.222018468595096801E-13, -4.286263797015737285E-15, 35.00000000000000000 ) ) ;
#159 = ADVANCED_FACE ( 'NONE', ( #209 ), #90, .F. ) ;
#160 =( NAMED_UNIT ( * ) PLANE_ANGLE_UNIT ( ) SI_UNIT ( $, .RADIAN. ) );
#161 = EDGE_CURVE ( 'NONE', #29, #29, #175, .T. ) ;
#162 = VERTEX_POINT ( 'NONE', #211 ) ;
#163 = CC_DESIGN_APPROVAL ( #80, ( #42 ) ) ;
#164 = AXIS2_PLACEMENT_3D ( 'NONE', #230, #26, #91 ) ;
#165 = DIRECTION ( 'NONE',  ( -4.275831445896959482E-31, -1.000000000000000000, -1.224646799147353454E-16 ) ) ;
#166 = PERSON_AND_ORGANIZATION_ROLE ( 'design_supplier' ) ;
#167 = CARTESIAN_POINT ( 'NONE',  ( 0.0000000000000000000, 0.0000000000000000000, 0.0000000000000000000 ) ) ;
#168 = APPROVAL_STATUS ( 'not_yet_approved' ) ;
#169 = CYLINDRICAL_SURFACE ( 'NONE', #220, 1.500000000000000666 ) ;
#170 = PERSON_AND_ORGANIZATION_ROLE ( 'classification_officer' ) ;
#171 = EDGE_CURVE ( 'NONE', #119, #119, #278, .T. ) ;
#172 = CARTESIAN_POINT ( 'NONE',  ( 2.269462870248036681E-14, -8.673617379884035472E-16, 6.500000000000000000 ) ) ;
#173 = DATE_AND_TIME ( #240, #14 ) ;
#174 = EDGE_LOOP ( 'NONE', ( #293 ) ) ;
#175 = CIRCLE ( 'NONE', #298, 0.7500000000000002220 ) ;
#176 = DIRECTION ( 'NONE',  ( 0.0000000000000000000, -1.000000000000000000, 0.0000000000000000000 ) ) ;
#177 = ADVANCED_FACE ( 'NONE', ( #20, #108 ), #273, .T. ) ;
#178 = CARTESIAN_POINT ( 'NONE',  ( -3.137680214051083503E-31, 1.076803961061279350E-32, -8.986673304376650883E-17 ) ) ;
#179 = PLANE ( 'NONE',  #283 ) ;
#180 = AXIS2_PLACEMENT_3D ( 'NONE', #239, #192, #261 ) ;
#181 = DIRECTION ( 'NONE',  ( 0.0000000000000000000, 1.000000000000000000, 0.0000000000000000000 ) ) ;
#182 = CARTESIAN_POINT ( 'NONE',  ( 2.444036937190193664E-14, -8.387561750751542303E-16, 7.000000000000000888 ) ) ;
#183 = VERTEX_POINT ( 'NONE', #234 ) ;
#184 = EDGE_LOOP ( 'NONE', ( #200 ) ) ;
#185 = CONICAL_SURFACE ( 'NONE', #71, 1.999999999999998668, 0.5235987755983003700 ) ;
#186 = APPROVAL ( #168, 'UNSPECIFIED' ) ;
#187 = DIRECTION ( 'NONE',  ( 0.0000000000000000000, -1.000000000000000000, 0.0000000000000000000 ) ) ;
#188 = CC_DESIGN_APPROVAL ( #75, ( #197 ) ) ;
#189 = AXIS2_PLACEMENT_3D ( 'NONE', #150, #246, #165 ) ;
#190 = EDGE_CURVE ( 'NONE', #256, #256, #21, .T. ) ;
#191 = COORDINATED_UNIVERSAL_TIME_OFFSET ( 1, 0, .AHEAD. ) ;
#192 = DIRECTION ( 'NONE',  ( 3.491481338843133355E-15, -1.198223107250220118E-16, 1.000000000000000000 ) ) ;
#193 = APPLICATION_PROTOCOL_DEFINITION ( 'international standard', 'config_control_design', 1994, #276 ) ;
#194 = AXIS2_PLACEMENT_3D ( 'NONE', #156, #135, #301 ) ;
#195 = DIRECTION ( 'NONE',  ( 3.491481338843133355E-15, -1.198223107250220118E-16, 1.000000000000000000 ) ) ;
#196 = APPROVAL_STATUS ( 'not_yet_approved' ) ;
#197 = PRODUCT_DEFINITION ( 'UNKNOWN', '', #140, #33 ) ;
#198 = ORIENTED_EDGE ( 'NONE', *, *, #93, .T. ) ;
#199 = SHAPE_DEFINITION_REPRESENTATION ( #288, #205 ) ;
#200 = ORIENTED_EDGE ( 'NONE', *, *, #190, .F. ) ;
#201 = PERSON_AND_ORGANIZATION ( #267, #302 ) ;
#202 = FACE_OUTER_BOUND ( 'NONE', #125, .T. ) ;
#203 = CIRCLE ( 'NONE', #194, 1.999999999999998668 ) ;
#204 = DIRECTION ( 'NONE',  ( 0.0000000000000000000, -1.000000000000000000, 0.0000000000000000000 ) ) ;
#205 = ADVANCED_BREP_SHAPE_REPRESENTATION ( '987600', ( #294, #280, #129 ), #25 ) ;
#206 = CARTESIAN_POINT ( 'NONE',  ( 0.0000000000000000000, 0.0000000000000000000, 0.0000000000000000000 ) ) ;
#207 = APPROVAL_PERSON_ORGANIZATION ( #57, #186, #10 ) ;
#208 = PLANE ( 'NONE',  #120 ) ;
#209 = FACE_OUTER_BOUND ( 'NONE', #101, .T. ) ;
#210 = CARTESIAN_POINT ( 'NONE',  ( 2.269462870248036681E-14, -1.500000000000001554, 6.500000000000000000 ) ) ;
#211 = CARTESIAN_POINT ( 'NONE',  ( -6.275360428102167005E-31, -0.7500000000000000000, -1.797334660875330177E-16 ) ) ;
#212 = CARTESIAN_POINT ( 'NONE',  ( 1.923656970547788895E-14, -1.500000000000001332, 5.509572539159475646 ) ) ;
#213 = ORIENTED_EDGE ( 'NONE', *, *, #86, .F. ) ;
#214 = APPLICATION_CONTEXT ( 'configuration controlled 3d designs of mechanical parts and assemblies' ) ;
#215 = ADVANCED_FACE ( 'NONE', ( #88 ), #179, .F. ) ;
#216 = EDGE_LOOP ( 'NONE', ( #9 ) ) ;
#217 = EDGE_LOOP ( 'NONE', ( #265 ) ) ;
#218 = DIRECTION ( 'NONE',  ( -4.183573618734778004E-31, -1.000000000000000000, -1.198223107250220118E-16 ) ) ;
#219 = PERSON_AND_ORGANIZATION ( #267, #302 ) ;
#220 = AXIS2_PLACEMENT_3D ( 'NONE', #43, #133, #106 ) ;
#221 = ORIENTED_EDGE ( 'NONE', *, *, #171, .F. ) ;
#222 = DATE_AND_TIME ( #296, #255 ) ;
#223 = ORIENTED_EDGE ( 'NONE', *, *, #161, .F. ) ;
#224 = DIRECTION ( 'NONE',  ( 3.491481338843133355E-15, -1.198223107250220118E-16, 1.000000000000000000 ) ) ;
#225 = FACE_OUTER_BOUND ( 'NONE', #122, .T. ) ;
#226 = ADVANCED_FACE ( 'NONE', ( #202, #299 ), #48, .T. ) ;
#227 = DIRECTION ( 'NONE',  ( 4.275831445896958607E-31, 1.000000000000000000, 1.224646799147353454E-16 ) ) ;
#228 = DIRECTION ( 'NONE',  ( -4.275831445896959482E-31, -1.000000000000000000, -1.224646799147353454E-16 ) ) ;
#229 = LOCAL_TIME ( 15, 12, 43.00000000000000000, #191 ) ;
#230 = CARTESIAN_POINT ( 'NONE',  ( 1.923656970547788895E-14, -6.601697127492151517E-16, 5.509572539159475646 ) ) ;
#231 = CIRCLE ( 'NONE', #96, 0.7500000000000000000 ) ;
#232 = VERTEX_POINT ( 'NONE', #210 ) ;
#233 = CARTESIAN_POINT ( 'NONE',  ( 2.444036937190193664E-14, -1.633974596215563402, 7.000000000000000888 ) ) ;
#234 = CARTESIAN_POINT ( 'NONE',  ( 1.222018468595096359E-14, -0.7500000000000006661, 3.499999999999999112 ) ) ;
#235 = PRODUCT ( '987600', '987600', '', ( #12 ) ) ;
#236 = TOROIDAL_SURFACE ( 'NONE', #145, 2.500000000000000888, 1.000000000000000222 ) ;
#237 = EDGE_LOOP ( 'NONE', ( #37 ) ) ;
#238 = AXIS2_PLACEMENT_3D ( 'NONE', #137, #45, #181 ) ;
#239 = CARTESIAN_POINT ( 'NONE',  ( 1.923656970547788895E-14, -6.601697127492151517E-16, 5.509572539159475646 ) ) ;
#240 = CALENDAR_DATE ( 2021, 8, 11 ) ;
#241 = ADVANCED_FACE ( 'NONE', ( #113 ), #208, .F. ) ;
#242 = PERSON_AND_ORGANIZATION_ROLE ( 'creator' ) ;
#243 = CALENDAR_DATE ( 2021, 8, 11 ) ;
#244 = CLOSED_SHELL ( 'NONE', ( #177, #226, #159, #110, #60, #73, #30, #124, #241 ) ) ;
#245 = AXIS2_PLACEMENT_3D ( 'NONE', #182, #68, #23 ) ;
#246 = DIRECTION ( 'NONE',  ( 3.491481338843133355E-15, -1.224646799147353454E-16, 1.000000000000000000 ) ) ;
#247 = DIRECTION ( 'NONE',  ( 0.0000000000000000000, 1.000000000000000000, 0.0000000000000000000 ) ) ;
#248 = FACE_OUTER_BOUND ( 'NONE', #284, .T. ) ;
#249 = DIRECTION ( 'NONE',  ( -4.280138325655721436E-31, -1.000000000000000000, -1.198223107250220118E-16 ) ) ;
#250 = CLOSED_SHELL ( 'NONE', ( #18, #32, #215 ) ) ;
#251 = CC_DESIGN_PERSON_AND_ORGANIZATION_ASSIGNMENT ( #38, #126, ( #235 ) ) ;
#252 = CARTESIAN_POINT ( 'NONE',  ( -3.206893176761000815E-31, 1.124826709063586741E-32, -9.184907108292241390E-17 ) ) ;
#253 = DIRECTION ( 'NONE',  ( -3.491481338843133355E-15, 1.224646799147353454E-16, -1.000000000000000000 ) ) ;
#254 = EDGE_CURVE ( 'NONE', #70, #70, #144, .T. ) ;
#255 = LOCAL_TIME ( 15, 12, 43.00000000000000000, #103 ) ;
#256 = VERTEX_POINT ( 'NONE', #233 ) ;
#257 = CC_DESIGN_PERSON_AND_ORGANIZATION_ASSIGNMENT ( #77, #166, ( #140 ) ) ;
#258 = CARTESIAN_POINT ( 'NONE',  ( 1.208052543239724267E-13, 1.999999999999995781, 34.60000000000000853 ) ) ;
#259 = EDGE_LOOP ( 'NONE', ( #76 ) ) ;
#260 = CARTESIAN_POINT ( 'NONE',  ( 0.0000000000000000000, 0.0000000000000000000, 0.0000000000000000000 ) ) ;
#261 = DIRECTION ( 'NONE',  ( 0.0000000000000000000, -1.000000000000000000, 0.0000000000000000000 ) ) ;
#262 = PERSON_AND_ORGANIZATION_ROLE ( 'creator' ) ;
#263 = CYLINDRICAL_SURFACE ( 'NONE', #290, 0.7500000000000001110 ) ;
#264 = DATE_TIME_ROLE ( 'classification_date' ) ;
#265 = ORIENTED_EDGE ( 'NONE', *, *, #86, .T. ) ;
#266 = AXIS2_PLACEMENT_3D ( 'NONE', #158, #253, #139 ) ;
#267 = PERSON ( 'UNSPECIFIED', 'UNSPECIFIED', 'UNSPECIFIED', ('UNSPECIFIED'), ('UNSPECIFIED'), ('UNSPECIFIED') ) ;
#268 = EDGE_LOOP ( 'NONE', ( #198 ) ) ;
#269 = EDGE_CURVE ( 'NONE', #118, #118, #297, .T. ) ;
#270 = FACE_BOUND ( 'NONE', #56, .T. ) ;
#271 = CARTESIAN_POINT ( 'NONE',  ( 1.222018468595096359E-14, -4.193780875375769672E-16, 3.499999999999999112 ) ) ;
#272 = CC_DESIGN_PERSON_AND_ORGANIZATION_ASSIGNMENT ( #132, #242, ( #197 ) ) ;
#273 = CYLINDRICAL_SURFACE ( 'NONE', #116, 1.999999999999998224 ) ;
#274 = DIRECTION ( 'NONE',  ( 3.491481338843133355E-15, -1.224646799147353454E-16, 1.000000000000000000 ) ) ;
#275 = DIRECTION ( 'NONE',  ( 0.0000000000000000000, -1.000000000000000000, 0.0000000000000000000 ) ) ;
#276 = APPLICATION_CONTEXT ( 'configuration controlled 3d designs of mechanical parts and assemblies' ) ;
#277 =( LENGTH_UNIT ( ) NAMED_UNIT ( * ) SI_UNIT ( .MILLI., .METRE. ) );
#278 = CIRCLE ( 'NONE', #238, 2.000000000000000000 ) ;
#279 = VERTEX_POINT ( 'NONE', #27 ) ;
#280 = MANIFOLD_SOLID_BREP ( 'Corps-Déplacer/Copier1[2]', #250 ) ;
#281 = CC_DESIGN_DATE_AND_TIME_ASSIGNMENT ( #222, #79, ( #197 ) ) ;
#282 = EDGE_CURVE ( 'NONE', #92, #92, #109, .T. ) ;
#283 = AXIS2_PLACEMENT_3D ( 'NONE', #252, #47, #228 ) ;
#284 = EDGE_LOOP ( 'NONE', ( #41 ) ) ;
#285 = DIRECTION ( 'NONE',  ( 0.0000000000000000000, 0.0000000000000000000, 1.000000000000000000 ) ) ;
#286 = FACE_OUTER_BOUND ( 'NONE', #16, .T. ) ;
#287 = AXIS2_PLACEMENT_3D ( 'NONE', #24, #1, #247 ) ;
#288 = PRODUCT_DEFINITION_SHAPE ( 'NONE', 'NONE',  #197 ) ;
#289 = COORDINATED_UNIVERSAL_TIME_OFFSET ( 1, 0, .AHEAD. ) ;
#290 = AXIS2_PLACEMENT_3D ( 'NONE', #167, #130, #291 ) ;
#291 = DIRECTION ( 'NONE',  ( -4.183573618734778879E-31, -1.000000000000000000, -1.198223107250220364E-16 ) ) ;
#292 = CALENDAR_DATE ( 2021, 8, 11 ) ;
#293 = ORIENTED_EDGE ( 'NONE', *, *, #171, .T. ) ;
#294 = MANIFOLD_SOLID_BREP ( 'Corps-Déplacer/Copier1[1]', #244 ) ;
#295 = ORIENTED_EDGE ( 'NONE', *, *, #190, .T. ) ;
#296 = CALENDAR_DATE ( 2021, 8, 11 ) ;
#297 = CIRCLE ( 'NONE', #164, 1.500000000000000666 ) ;
#298 = AXIS2_PLACEMENT_3D ( 'NONE', #271, #300, #275 ) ;
#299 = FACE_BOUND ( 'NONE', #31, .T. ) ;
#300 = DIRECTION ( 'NONE',  ( 3.491481338843133355E-15, -1.198223107250220118E-16, 1.000000000000000000 ) ) ;
#301 = DIRECTION ( 'NONE',  ( 0.0000000000000000000, -1.000000000000000000, 0.0000000000000000000 ) ) ;
#302 = ORGANIZATION ( 'UNSPECIFIED', 'UNSPECIFIED', '' ) ;
#303 = CARTESIAN_POINT ( 'NONE',  ( 2.269462870248036681E-14, -7.788450197126430519E-16, 6.500000000000000000 ) ) ;
ENDSEC;
END-ISO-10303-21;
