ISO-10303-21;
HEADER;
FILE_DESCRIPTION (( 'STEP AP203' ),
    '1' );
FILE_NAME ('987599.step',
    '2021-11-08T14:12:43',
    ( '' ),
    ( '' ),
    'SwSTEP 2.0',
    'SolidWorks 2019',
    '' );
FILE_SCHEMA (( 'CONFIG_CONTROL_DESIGN' ));
ENDSEC;

DATA;
#1 = EDGE_LOOP ( 'NONE', ( #199 ) ) ;
#2 = DIRECTION ( 'NONE',  ( 3.491481338843133355E-15, -1.198223107250220118E-16, 1.000000000000000000 ) ) ;
#3 = CIRCLE ( 'NONE', #50, 1.500000000000000666 ) ;
#4 = CC_DESIGN_APPROVAL ( #287, ( #294 ) ) ;
#5 = DIRECTION ( 'NONE',  ( 0.0000000000000000000, -1.000000000000000000, 0.0000000000000000000 ) ) ;
#6 = CARTESIAN_POINT ( 'NONE',  ( 2.490813917446759407E-14, -8.548093207721539203E-16, 7.133974596215557185 ) ) ;
#7 = CARTESIAN_POINT ( 'NONE',  ( 2.094888803305880013E-14, -8.673617379884035472E-16, 6.000000000000000000 ) ) ;
#8 = ORIENTED_EDGE ( 'NONE', *, *, #31, .F. ) ;
#9 = VERTEX_POINT ( 'NONE', #77 ) ;
#10 =( LENGTH_UNIT ( ) NAMED_UNIT ( * ) SI_UNIT ( .MILLI., .METRE. ) );
#11 = APPROVAL_STATUS ( 'not_yet_approved' ) ;
#12 = PERSON_AND_ORGANIZATION ( #190, #264 ) ;
#13 = APPLICATION_CONTEXT ( 'configuration controlled 3d designs of mechanical parts and assemblies' ) ;
#14 = COORDINATED_UNIVERSAL_TIME_OFFSET ( 1, 0, .AHEAD. ) ;
#15 = AXIS2_PLACEMENT_3D ( 'NONE', #95, #182, #25 ) ;
#16 = DIRECTION ( 'NONE',  ( 0.0000000000000000000, 1.000000000000000000, 0.0000000000000000000 ) ) ;
#17 = EDGE_CURVE ( 'NONE', #75, #75, #238, .T. ) ;
#18 = PLANE ( 'NONE',  #253 ) ;
#19 = PRODUCT_DEFINITION ( 'UNKNOWN', '', #294, #120 ) ;
#20 = ORIENTED_EDGE ( 'NONE', *, *, #193, .F. ) ;
#21 = DIRECTION ( 'NONE',  ( 3.491481338843133355E-15, -1.198223107250220118E-16, 1.000000000000000000 ) ) ;
#22 = FACE_OUTER_BOUND ( 'NONE', #211, .T. ) ;
#23 = PLANE ( 'NONE',  #186 ) ;
#24 = AXIS2_PLACEMENT_3D ( 'NONE', #7, #94, #48 ) ;
#25 = DIRECTION ( 'NONE',  ( 0.0000000000000000000, -1.000000000000000000, 0.0000000000000000000 ) ) ;
#26 = CARTESIAN_POINT ( 'NONE',  ( 0.0000000000000000000, 0.0000000000000000000, 0.0000000000000000000 ) ) ;
#27 = CARTESIAN_POINT ( 'NONE',  ( 8.728703347107828655E-15, -2.995557768125549062E-16, 2.499999999999998668 ) ) ;
#28 = CALENDAR_DATE ( 2021, 8, 11 ) ;
#29 = CONICAL_SURFACE ( 'NONE', #15, 1.500000000000000666, 0.3926990816987253052 ) ;
#30 = VERTEX_POINT ( 'NONE', #126 ) ;
#31 = EDGE_CURVE ( 'NONE', #9, #9, #3, .T. ) ;
#32 = VERTEX_POINT ( 'NONE', #218 ) ;
#33 = DATE_AND_TIME ( #146, #248 ) ;
#34 = ORIENTED_EDGE ( 'NONE', *, *, #207, .F. ) ;
#35 = APPROVAL_PERSON_ORGANIZATION ( #176, #283, #250 ) ;
#36 = CARTESIAN_POINT ( 'NONE',  ( 1.006483540989498103E-14, -0.7261204674887136168, 2.882683432365089615 ) ) ;
#37 = ORIENTED_EDGE ( 'NONE', *, *, #17, .T. ) ;
#38 = DATE_TIME_ROLE ( 'classification_date' ) ;
#39 = ORIENTED_EDGE ( 'NONE', *, *, #207, .T. ) ;
#40 = CIRCLE ( 'NONE', #205, 0.6500000000000000222 ) ;
#41 = CARTESIAN_POINT ( 'NONE',  ( 8.728703347107828655E-15, -2.168404344971008868E-16, 2.499999999999998668 ) ) ;
#42 = ADVANCED_FACE ( 'NONE', ( #276, #195 ), #104, .T. ) ;
#43 = DIRECTION ( 'NONE',  ( 0.0000000000000000000, -1.000000000000000000, 0.0000000000000000000 ) ) ;
#44 = ORIENTED_EDGE ( 'NONE', *, *, #105, .T. ) ;
#45 = AXIS2_PLACEMENT_3D ( 'NONE', #192, #172, #87 ) ;
#46 = CC_DESIGN_APPROVAL ( #210, ( #19 ) ) ;
#47 = DIRECTION ( 'NONE',  ( 3.491481338843133355E-15, -1.198223107250220118E-16, 1.000000000000000000 ) ) ;
#48 = DIRECTION ( 'NONE',  ( -4.183573618734778004E-31, -1.000000000000000000, -1.198223107250220118E-16 ) ) ;
#49 = FACE_OUTER_BOUND ( 'NONE', #127, .T. ) ;
#50 = AXIS2_PLACEMENT_3D ( 'NONE', #92, #251, #301 ) ;
#51 = DIRECTION ( 'NONE',  ( 3.491481338843133355E-15, -1.198223107250220118E-16, 1.000000000000000000 ) ) ;
#52 = EDGE_LOOP ( 'NONE', ( #34 ) ) ;
#53 = CARTESIAN_POINT ( 'NONE',  ( 8.728703347107831810E-15, -5.421010862427531045E-16, 2.499999999999999556 ) ) ;
#54 = UNCERTAINTY_MEASURE_WITH_UNIT (LENGTH_MEASURE( 1.000000000000000082E-05 ), #10, 'distance_accuracy_value', 'NONE');
#55 = CARTESIAN_POINT ( 'NONE',  ( -3.206893176761000815E-31, 1.124826709063586741E-32, -9.184907108292241390E-17 ) ) ;
#56 = APPLICATION_PROTOCOL_DEFINITION ( 'international standard', 'config_control_design', 1994, #13 ) ;
#57 = CIRCLE ( 'NONE', #219, 2.000000000000000000 ) ;
#58 = LOCAL_TIME ( 15, 12, 43.00000000000000000, #191 ) ;
#59 = DIRECTION ( 'NONE',  ( 1.000000000000000000, 0.0000000000000000000, 0.0000000000000000000 ) ) ;
#60 = COORDINATED_UNIVERSAL_TIME_OFFSET ( 1, 0, .AHEAD. ) ;
#61 = EDGE_LOOP ( 'NONE', ( #260 ) ) ;
#62 = AXIS2_PLACEMENT_3D ( 'NONE', #284, #179, #209 ) ;
#63 = EDGE_LOOP ( 'NONE', ( #39 ) ) ;
#64 = PERSON_AND_ORGANIZATION ( #190, #264 ) ;
#65 = ORIENTED_EDGE ( 'NONE', *, *, #233, .T. ) ;
#66 = DIRECTION ( 'NONE',  ( -4.275831445896959482E-31, -1.000000000000000000, -1.224646799147353454E-16 ) ) ;
#67 = AXIS2_PLACEMENT_3D ( 'NONE', #6, #51, #232 ) ;
#68 = EDGE_LOOP ( 'NONE', ( #37 ) ) ;
#69 = EDGE_LOOP ( 'NONE', ( #187 ) ) ;
#70 = EDGE_LOOP ( 'NONE', ( #246 ) ) ;
#71 = VERTEX_POINT ( 'NONE', #267 ) ;
#72 = CARTESIAN_POINT ( 'NONE',  ( 2.094888803305880013E-14, -7.189338643501320706E-16, 6.000000000000000000 ) ) ;
#73 = CYLINDRICAL_SURFACE ( 'NONE', #124, 1.500000000000000444 ) ;
#74 = AXIS2_PLACEMENT_3D ( 'NONE', #72, #256, #5 ) ;
#75 = VERTEX_POINT ( 'NONE', #236 ) ;
#76 = ORIENTED_EDGE ( 'NONE', *, *, #105, .F. ) ;
#77 = CARTESIAN_POINT ( 'NONE',  ( 1.658800652673551624E-14, -1.500000000000001332, 4.750993895396783628 ) ) ;
#78 =( NAMED_UNIT ( * ) PLANE_ANGLE_UNIT ( ) SI_UNIT ( $, .RADIAN. ) );
#79 = MECHANICAL_CONTEXT ( 'NONE', #13, 'mechanical' ) ;
#80 = PERSON_AND_ORGANIZATION ( #190, #264 ) ;
#81 = PERSON_AND_ORGANIZATION ( #190, #264 ) ;
#82 = ORIENTED_EDGE ( 'NONE', *, *, #193, .T. ) ;
#83 = CARTESIAN_POINT ( 'NONE',  ( 0.0000000000000000000, 0.0000000000000000000, 0.0000000000000000000 ) ) ;
#84 = AXIS2_PLACEMENT_3D ( 'NONE', #221, #225, #16 ) ;
#85 = PRODUCT_DEFINITION_SHAPE ( 'NONE', 'NONE',  #19 ) ;
#86 = PERSON_AND_ORGANIZATION ( #190, #264 ) ;
#87 = DIRECTION ( 'NONE',  ( 0.0000000000000000000, -1.000000000000000000, 0.0000000000000000000 ) ) ;
#88 = APPLICATION_CONTEXT ( 'configuration controlled 3d designs of mechanical parts and assemblies' ) ;
#89 = DIRECTION ( 'NONE',  ( 3.491481338843133355E-15, -1.198223107250220118E-16, 1.000000000000000000 ) ) ;
#90 = DATE_AND_TIME ( #272, #140 ) ;
#91 = EDGE_LOOP ( 'NONE', ( #177 ) ) ;
#92 = CARTESIAN_POINT ( 'NONE',  ( 1.658800652673551624E-14, -5.692750667869161402E-16, 4.750993895396783628 ) ) ;
#93 = CARTESIAN_POINT ( 'NONE',  ( 1.006483540989498103E-14, -3.454097899547227508E-16, 2.882683432365089615 ) ) ;
#94 = DIRECTION ( 'NONE',  ( 3.491481338843133355E-15, -1.198223107250220118E-16, 1.000000000000000000 ) ) ;
#95 = CARTESIAN_POINT ( 'NONE',  ( 1.658800652673551624E-14, -5.692750667869161402E-16, 4.750993895396783628 ) ) ;
#96 = DIRECTION ( 'NONE',  ( 0.0000000000000000000, 1.000000000000000000, 0.0000000000000000000 ) ) ;
#97 = ORIENTED_EDGE ( 'NONE', *, *, #241, .T. ) ;
#98 = AXIS2_PLACEMENT_3D ( 'NONE', #27, #2, #234 ) ;
#99 = AXIS2_PLACEMENT_3D ( 'NONE', #83, #217, #59 ) ;
#100 = CARTESIAN_POINT ( 'NONE',  ( -5.438645704355211054E-31, -0.6500000000000000222, -1.557690039425286252E-16 ) ) ;
#101 = APPROVAL_ROLE ( '' ) ;
#102 = CLOSED_SHELL ( 'NONE', ( #265, #130, #230 ) ) ;
#103 = PERSON_AND_ORGANIZATION_ROLE ( 'creator' ) ;
#104 = CONICAL_SURFACE ( 'NONE', #293, 1.999999999999998668, 0.5235987755983003700 ) ;
#105 = EDGE_CURVE ( 'NONE', #280, #280, #40, .T. ) ;
#106 = FACE_BOUND ( 'NONE', #1, .T. ) ;
#107 =( GEOMETRIC_REPRESENTATION_CONTEXT ( 3 ) GLOBAL_UNCERTAINTY_ASSIGNED_CONTEXT ( ( #54 ) ) GLOBAL_UNIT_ASSIGNED_CONTEXT ( ( #10, #78, #165 ) ) REPRESENTATION_CONTEXT ( 'NONE', 'WORKASPACE' ) );
#108 = PRODUCT ( '987599', '987599', '', ( #79 ) ) ;
#109 = ORIENTED_EDGE ( 'NONE', *, *, #296, .T. ) ;
#110 = EDGE_LOOP ( 'NONE', ( #109 ) ) ;
#111 = LOCAL_TIME ( 15, 12, 43.00000000000000000, #14 ) ;
#112 = CARTESIAN_POINT ( 'NONE',  ( 0.0000000000000000000, 0.0000000000000000000, 0.0000000000000000000 ) ) ;
#113 = FACE_OUTER_BOUND ( 'NONE', #63, .T. ) ;
#114 = DIRECTION ( 'NONE',  ( 3.491481338843133355E-15, -1.224646799147353454E-16, 1.000000000000000000 ) ) ;
#115 = AXIS2_PLACEMENT_3D ( 'NONE', #93, #188, #261 ) ;
#116 = PLANE ( 'NONE',  #285 ) ;
#117 = PLANE ( 'NONE',  #62 ) ;
#118 = DIRECTION ( 'NONE',  ( -3.491481338843133355E-15, 1.224646799147353454E-16, -1.000000000000000000 ) ) ;
#119 = ADVANCED_FACE ( 'NONE', ( #295, #223 ), #247, .F. ) ;
#120 = DESIGN_CONTEXT ( 'detailed design', #88, 'design' ) ;
#121 = PERSON_AND_ORGANIZATION_ROLE ( 'creator' ) ;
#122 = PERSON_AND_ORGANIZATION_ROLE ( 'design_owner' ) ;
#123 = CARTESIAN_POINT ( 'NONE',  ( 8.728703347107828655E-15, -0.6500000000000003553, 2.499999999999998668 ) ) ;
#124 = AXIS2_PLACEMENT_3D ( 'NONE', #138, #163, #208 ) ;
#125 = APPROVAL_DATE_TIME ( #33, #287 ) ;
#126 = CARTESIAN_POINT ( 'NONE',  ( 2.490813917446759407E-14, -1.999999999999999556, 7.133974596215557185 ) ) ;
#127 = EDGE_LOOP ( 'NONE', ( #271 ) ) ;
#128 = APPROVAL_DATE_TIME ( #90, #283 ) ;
#129 = EDGE_LOOP ( 'NONE', ( #8 ) ) ;
#130 = ADVANCED_FACE ( 'NONE', ( #136, #134 ), #303, .T. ) ;
#131 = DIRECTION ( 'NONE',  ( -4.183573618734778004E-31, -1.000000000000000000, -1.198223107250220118E-16 ) ) ;
#132 = ADVANCED_FACE ( 'NONE', ( #278, #106 ), #150, .T. ) ;
#133 = ORIENTED_EDGE ( 'NONE', *, *, #162, .F. ) ;
#134 = FACE_OUTER_BOUND ( 'NONE', #70, .T. ) ;
#135 = EDGE_CURVE ( 'NONE', #286, #286, #197, .T. ) ;
#136 = FACE_OUTER_BOUND ( 'NONE', #252, .T. ) ;
#137 = ORIENTED_EDGE ( 'NONE', *, *, #241, .F. ) ;
#138 = CARTESIAN_POINT ( 'NONE',  ( 0.0000000000000000000, 0.0000000000000000000, 0.0000000000000000000 ) ) ;
#139 = DIRECTION ( 'NONE',  ( -3.491481338843133355E-15, 1.224646799147353454E-16, -1.000000000000000000 ) ) ;
#140 = LOCAL_TIME ( 15, 12, 43.00000000000000000, #220 ) ;
#141 = DIRECTION ( 'NONE',  ( 0.0000000000000000000, 1.000000000000000000, 0.0000000000000000000 ) ) ;
#142 = EDGE_LOOP ( 'NONE', ( #76 ) ) ;
#143 = FACE_OUTER_BOUND ( 'NONE', #129, .T. ) ;
#144 = FACE_OUTER_BOUND ( 'NONE', #69, .T. ) ;
#145 = CIRCLE ( 'NONE', #98, 0.6500000000000001332 ) ;
#146 = CALENDAR_DATE ( 2021, 8, 11 ) ;
#147 = EDGE_LOOP ( 'NONE', ( #20 ) ) ;
#148 = CARTESIAN_POINT ( 'NONE',  ( 8.728703347107831810E-15, -5.421010862427531045E-16, 2.499999999999999556 ) ) ;
#149 = CC_DESIGN_PERSON_AND_ORGANIZATION_ASSIGNMENT ( #288, #169, ( #294 ) ) ;
#150 = CONICAL_SURFACE ( 'NONE', #84, 1.600000000000000089, 0.7853981633974512766 ) ;
#151 = CARTESIAN_POINT ( 'NONE',  ( 1.222018468595096801E-13, -4.286263797015737285E-15, 35.00000000000000000 ) ) ;
#152 = LOCAL_TIME ( 15, 12, 43.00000000000000000, #171 ) ;
#153 = ADVANCED_FACE ( 'NONE', ( #170 ), #18, .F. ) ;
#154 = APPROVAL_STATUS ( 'not_yet_approved' ) ;
#155 = CARTESIAN_POINT ( 'NONE',  ( -2.719322852177605527E-31, 9.332300995864421578E-33, -7.788450197126431258E-17 ) ) ;
#156 = EDGE_LOOP ( 'NONE', ( #65 ) ) ;
#157 = CIRCLE ( 'NONE', #67, 1.999999999999998668 ) ;
#158 = DIRECTION ( 'NONE',  ( -4.275831445896959482E-31, -1.000000000000000000, -1.224646799147353454E-16 ) ) ;
#159 = FACE_BOUND ( 'NONE', #110, .T. ) ;
#160 = EDGE_LOOP ( 'NONE', ( #82 ) ) ;
#161 = DIRECTION ( 'NONE',  ( 4.275831445896958607E-31, 1.000000000000000000, 1.224646799147353454E-16 ) ) ;
#162 = EDGE_CURVE ( 'NONE', #71, #71, #302, .T. ) ;
#163 = DIRECTION ( 'NONE',  ( 3.491481338843133355E-15, -1.198223107250220118E-16, 1.000000000000000000 ) ) ;
#164 = PERSON_AND_ORGANIZATION ( #190, #264 ) ;
#165 =( NAMED_UNIT ( * ) SI_UNIT ( $, .STERADIAN. ) SOLID_ANGLE_UNIT ( ) );
#166 = ADVANCED_FACE ( 'NONE', ( #113, #49 ), #242, .F. ) ;
#167 = DATE_AND_TIME ( #28, #111 ) ;
#168 = APPROVAL_ROLE ( '' ) ;
#169 = PERSON_AND_ORGANIZATION_ROLE ( 'design_supplier' ) ;
#170 = FACE_OUTER_BOUND ( 'NONE', #235, .T. ) ;
#171 = COORDINATED_UNIVERSAL_TIME_OFFSET ( 1, 0, .AHEAD. ) ;
#172 = DIRECTION ( 'NONE',  ( 3.491481338843133355E-15, -1.198223107250220118E-16, 1.000000000000000000 ) ) ;
#173 = ADVANCED_FACE ( 'NONE', ( #204, #212 ), #73, .T. ) ;
#174 = CARTESIAN_POINT ( 'NONE',  ( 2.490813917446759407E-14, -8.548093207721539203E-16, 7.133974596215557185 ) ) ;
#175 = CC_DESIGN_PERSON_AND_ORGANIZATION_ASSIGNMENT ( #164, #122, ( #108 ) ) ;
#176 = PERSON_AND_ORGANIZATION ( #190, #264 ) ;
#177 = ORIENTED_EDGE ( 'NONE', *, *, #296, .F. ) ;
#178 = DIRECTION ( 'NONE',  ( 0.0000000000000000000, -1.000000000000000000, 0.0000000000000000000 ) ) ;
#179 = DIRECTION ( 'NONE',  ( -3.491481338843133355E-15, 1.224646799147353454E-16, -1.000000000000000000 ) ) ;
#180 = CIRCLE ( 'NONE', #74, 1.500000000000000222 ) ;
#181 = CC_DESIGN_SECURITY_CLASSIFICATION ( #206, ( #294 ) ) ;
#182 = DIRECTION ( 'NONE',  ( 3.491481338843133355E-15, -1.198223107250220118E-16, 1.000000000000000000 ) ) ;
#183 = PRODUCT_RELATED_PRODUCT_CATEGORY ( 'detail', '', ( #108 ) ) ;
#184 = DIRECTION ( 'NONE',  ( -4.275831445896959482E-31, -1.000000000000000000, -1.224646799147353454E-16 ) ) ;
#185 = CYLINDRICAL_SURFACE ( 'NONE', #226, 1.999999999999998224 ) ;
#186 = AXIS2_PLACEMENT_3D ( 'NONE', #55, #114, #158 ) ;
#187 = ORIENTED_EDGE ( 'NONE', *, *, #135, .T. ) ;
#188 = DIRECTION ( 'NONE',  ( 3.491481338843133355E-15, -1.198223107250220118E-16, 1.000000000000000000 ) ) ;
#189 = DATE_AND_TIME ( #270, #58 ) ;
#190 = PERSON ( 'UNSPECIFIED', 'UNSPECIFIED', 'UNSPECIFIED', ('UNSPECIFIED'), ('UNSPECIFIED'), ('UNSPECIFIED') ) ;
#191 = COORDINATED_UNIVERSAL_TIME_OFFSET ( 1, 0, .AHEAD. ) ;
#192 = CARTESIAN_POINT ( 'NONE',  ( 8.728703347107828655E-15, -2.995557768125549062E-16, 2.499999999999998668 ) ) ;
#193 = EDGE_CURVE ( 'NONE', #30, #30, #157, .T. ) ;
#194 = PERSON_AND_ORGANIZATION_ROLE ( 'classification_officer' ) ;
#195 = FACE_OUTER_BOUND ( 'NONE', #147, .T. ) ;
#196 = EDGE_LOOP ( 'NONE', ( #97 ) ) ;
#197 = CIRCLE ( 'NONE', #45, 0.6500000000000001332 ) ;
#198 = APPROVAL_PERSON_ORGANIZATION ( #64, #287, #101 ) ;
#199 = ORIENTED_EDGE ( 'NONE', *, *, #162, .T. ) ;
#200 = CC_DESIGN_PERSON_AND_ORGANIZATION_ASSIGNMENT ( #86, #194, ( #206 ) ) ;
#201 = SECURITY_CLASSIFICATION_LEVEL ( 'unclassified' ) ;
#202 = DIRECTION ( 'NONE',  ( -4.183573618734778004E-31, -1.000000000000000000, -1.198223107250220118E-16 ) ) ;
#203 = FACE_OUTER_BOUND ( 'NONE', #160, .T. ) ;
#204 = FACE_OUTER_BOUND ( 'NONE', #61, .T. ) ;
#205 = AXIS2_PLACEMENT_3D ( 'NONE', #155, #47, #131 ) ;
#206 = SECURITY_CLASSIFICATION ( '', '', #201 ) ;
#207 = EDGE_CURVE ( 'NONE', #243, #243, #180, .T. ) ;
#208 = DIRECTION ( 'NONE',  ( -4.183573618734778879E-31, -1.000000000000000000, -1.198223107250220364E-16 ) ) ;
#209 = DIRECTION ( 'NONE',  ( 4.275831445896959482E-31, 1.000000000000000000, 1.224646799147353454E-16 ) ) ;
#210 = APPROVAL ( #11, 'UNSPECIFIED' ) ;
#211 = EDGE_LOOP ( 'NONE', ( #133 ) ) ;
#212 = FACE_OUTER_BOUND ( 'NONE', #52, .T. ) ;
#213 = VERTEX_POINT ( 'NONE', #36 ) ;
#214 = APPLICATION_PROTOCOL_DEFINITION ( 'international standard', 'config_control_design', 1994, #88 ) ;
#215 = VERTEX_POINT ( 'NONE', #123 ) ;
#216 = AXIS2_PLACEMENT_3D ( 'NONE', #41, #299, #275 ) ;
#217 = DIRECTION ( 'NONE',  ( 0.0000000000000000000, 0.0000000000000000000, 1.000000000000000000 ) ) ;
#218 = CARTESIAN_POINT ( 'NONE',  ( 1.208052543239724267E-13, 1.999999999999995781, 34.60000000000000853 ) ) ;
#219 = AXIS2_PLACEMENT_3D ( 'NONE', #281, #139, #141 ) ;
#220 = COORDINATED_UNIVERSAL_TIME_OFFSET ( 1, 0, .AHEAD. ) ;
#221 = CARTESIAN_POINT ( 'NONE',  ( 1.222018468595096801E-13, -4.286263797015737285E-15, 35.00000000000000000 ) ) ;
#222 = ADVANCED_FACE ( 'NONE', ( #159, #143 ), #29, .T. ) ;
#223 = FACE_OUTER_BOUND ( 'NONE', #91, .T. ) ;
#224 = CC_DESIGN_PERSON_AND_ORGANIZATION_ASSIGNMENT ( #80, #103, ( #19 ) ) ;
#225 = DIRECTION ( 'NONE',  ( -3.491481338843133355E-15, 1.224646799147353454E-16, -1.000000000000000000 ) ) ;
#226 = AXIS2_PLACEMENT_3D ( 'NONE', #26, #118, #161 ) ;
#227 = CIRCLE ( 'NONE', #115, 0.7261204674887133947 ) ;
#228 = DIRECTION ( 'NONE',  ( 3.491481338843133355E-15, -1.198223107250220118E-16, 1.000000000000000000 ) ) ;
#229 = CARTESIAN_POINT ( 'NONE',  ( 2.269462870248037312E-14, -7.788450197126432491E-16, 6.500000000000001776 ) ) ;
#230 = ADVANCED_FACE ( 'NONE', ( #255 ), #23, .F. ) ;
#231 = CC_DESIGN_PERSON_AND_ORGANIZATION_ASSIGNMENT ( #12, #121, ( #294 ) ) ;
#232 = DIRECTION ( 'NONE',  ( 0.0000000000000000000, -1.000000000000000000, 0.0000000000000000000 ) ) ;
#233 = EDGE_CURVE ( 'NONE', #32, #32, #57, .T. ) ;
#234 = DIRECTION ( 'NONE',  ( 0.0000000000000000000, -1.000000000000000000, 0.0000000000000000000 ) ) ;
#235 = EDGE_LOOP ( 'NONE', ( #137 ) ) ;
#236 = CARTESIAN_POINT ( 'NONE',  ( 2.269462870248037312E-14, -1.633974596215562958, 6.500000000000001776 ) ) ;
#237 = APPROVAL_STATUS ( 'not_yet_approved' ) ;
#238 = CIRCLE ( 'NONE', #279, 1.633974596215562070 ) ;
#239 = MANIFOLD_SOLID_BREP ( 'Corps-Déplacer/Copier1[2]', #102 ) ;
#240 = CARTESIAN_POINT ( 'NONE',  ( 2.094888803305880013E-14, -1.500000000000000888, 6.000000000000000000 ) ) ;
#241 = EDGE_CURVE ( 'NONE', #215, #215, #145, .T. ) ;
#242 = TOROIDAL_SURFACE ( 'NONE', #24, 2.500000000000000888, 1.000000000000000444 ) ;
#243 = VERTEX_POINT ( 'NONE', #240 ) ;
#244 = MANIFOLD_SOLID_BREP ( 'Corps-Déplacer/Copier1[1]', #263 ) ;
#245 = SHAPE_DEFINITION_REPRESENTATION ( #85, #269 ) ;
#246 = ORIENTED_EDGE ( 'NONE', *, *, #135, .F. ) ;
#247 = TOROIDAL_SURFACE ( 'NONE', #216, 1.650000000000000133, 1.000000000000000222 ) ;
#248 = LOCAL_TIME ( 15, 12, 43.00000000000000000, #60 ) ;
#249 = DIRECTION ( 'NONE',  ( -3.491481338843133355E-15, 1.224646799147353454E-16, -1.000000000000000000 ) ) ;
#250 = APPROVAL_ROLE ( '' ) ;
#251 = DIRECTION ( 'NONE',  ( 3.491481338843133355E-15, -1.198223107250220118E-16, 1.000000000000000000 ) ) ;
#252 = EDGE_LOOP ( 'NONE', ( #44 ) ) ;
#253 = AXIS2_PLACEMENT_3D ( 'NONE', #148, #273, #66 ) ;
#254 = EDGE_LOOP ( 'NONE', ( #292 ) ) ;
#255 = FACE_OUTER_BOUND ( 'NONE', #142, .T. ) ;
#256 = DIRECTION ( 'NONE',  ( 3.491481338843133355E-15, -1.198223107250220118E-16, 1.000000000000000000 ) ) ;
#257 = DIRECTION ( 'NONE',  ( 3.491481338843133355E-15, -1.224646799147353454E-16, 1.000000000000000000 ) ) ;
#258 = AXIS2_PLACEMENT_3D ( 'NONE', #151, #249, #96 ) ;
#259 = CC_DESIGN_APPROVAL ( #283, ( #206 ) ) ;
#260 = ORIENTED_EDGE ( 'NONE', *, *, #31, .T. ) ;
#261 = DIRECTION ( 'NONE',  ( 0.0000000000000000000, -1.000000000000000000, 0.0000000000000000000 ) ) ;
#262 = CARTESIAN_POINT ( 'NONE',  ( 8.728703347107828655E-15, -0.6500000000000003553, 2.499999999999998668 ) ) ;
#263 = CLOSED_SHELL ( 'NONE', ( #277, #132, #289, #42, #166, #173, #222, #119, #153 ) ) ;
#264 = ORGANIZATION ( 'UNSPECIFIED', 'UNSPECIFIED', '' ) ;
#265 = ADVANCED_FACE ( 'NONE', ( #144 ), #116, .T. ) ;
#266 = DATE_TIME_ROLE ( 'creation_date' ) ;
#267 = CARTESIAN_POINT ( 'NONE',  ( 1.222018468595096801E-13, 1.599999999999995648, 35.00000000000000000 ) ) ;
#268 = APPROVAL_PERSON_ORGANIZATION ( #81, #210, #168 ) ;
#269 = ADVANCED_BREP_SHAPE_REPRESENTATION ( '987599', ( #244, #239, #99 ), #107 ) ;
#270 = CALENDAR_DATE ( 2021, 8, 11 ) ;
#271 = ORIENTED_EDGE ( 'NONE', *, *, #17, .F. ) ;
#272 = CALENDAR_DATE ( 2021, 8, 11 ) ;
#273 = DIRECTION ( 'NONE',  ( 3.491481338843133355E-15, -1.224646799147353454E-16, 1.000000000000000000 ) ) ;
#274 = CC_DESIGN_DATE_AND_TIME_ASSIGNMENT ( #189, #266, ( #19 ) ) ;
#275 = DIRECTION ( 'NONE',  ( -4.283782276860285736E-31, -1.000000000000000000, -1.198223107250220118E-16 ) ) ;
#276 = FACE_BOUND ( 'NONE', #68, .T. ) ;
#277 = ADVANCED_FACE ( 'NONE', ( #282, #203 ), #185, .T. ) ;
#278 = FACE_OUTER_BOUND ( 'NONE', #254, .T. ) ;
#279 = AXIS2_PLACEMENT_3D ( 'NONE', #229, #21, #178 ) ;
#280 = VERTEX_POINT ( 'NONE', #100 ) ;
#281 = CARTESIAN_POINT ( 'NONE',  ( 1.208052543239724267E-13, -4.237277925049843857E-15, 34.60000000000000853 ) ) ;
#282 = FACE_OUTER_BOUND ( 'NONE', #156, .T. ) ;
#283 = APPROVAL ( #154, 'UNSPECIFIED' ) ;
#284 = CARTESIAN_POINT ( 'NONE',  ( 1.222018468595096801E-13, 1.199807826129480202E-32, 35.00000000000000000 ) ) ;
#285 = AXIS2_PLACEMENT_3D ( 'NONE', #53, #257, #184 ) ;
#286 = VERTEX_POINT ( 'NONE', #262 ) ;
#287 = APPROVAL ( #237, 'UNSPECIFIED' ) ;
#288 = PERSON_AND_ORGANIZATION ( #190, #264 ) ;
#289 = ADVANCED_FACE ( 'NONE', ( #22 ), #117, .F. ) ;
#290 = AXIS2_PLACEMENT_3D ( 'NONE', #112, #89, #202 ) ;
#291 = APPROVAL_DATE_TIME ( #167, #210 ) ;
#292 = ORIENTED_EDGE ( 'NONE', *, *, #233, .F. ) ;
#293 = AXIS2_PLACEMENT_3D ( 'NONE', #174, #228, #43 ) ;
#294 = PRODUCT_DEFINITION_FORMATION_WITH_SPECIFIED_SOURCE ( 'ANY', '', #108, .NOT_KNOWN. ) ;
#295 = FACE_OUTER_BOUND ( 'NONE', #196, .T. ) ;
#296 = EDGE_CURVE ( 'NONE', #213, #213, #227, .T. ) ;
#297 = CALENDAR_DATE ( 2021, 8, 11 ) ;
#298 = CC_DESIGN_DATE_AND_TIME_ASSIGNMENT ( #300, #38, ( #206 ) ) ;
#299 = DIRECTION ( 'NONE',  ( 3.491481338843133355E-15, -1.198223107250220118E-16, 1.000000000000000000 ) ) ;
#300 = DATE_AND_TIME ( #297, #152 ) ;
#301 = DIRECTION ( 'NONE',  ( 0.0000000000000000000, -1.000000000000000000, 0.0000000000000000000 ) ) ;
#302 = CIRCLE ( 'NONE', #258, 1.600000000000000089 ) ;
#303 = CYLINDRICAL_SURFACE ( 'NONE', #290, 0.6500000000000000222 ) ;
ENDSEC;
END-ISO-10303-21;
