ISO-10303-21;
HEADER;
FILE_DESCRIPTION (( 'STEP AP203' ),
    '1' );
FILE_NAME ('987598.step',
    '2021-11-08T14:12:42',
    ( '' ),
    ( '' ),
    'SwSTEP 2.0',
    'SolidWorks 2019',
    '' );
FILE_SCHEMA (( 'CONFIG_CONTROL_DESIGN' ));
ENDSEC;

DATA;
#1 = DIRECTION ( 'NONE',  ( 3.491481338843133355E-15, -1.198223107250220118E-16, 1.000000000000000000 ) ) ;
#2 = DATE_TIME_ROLE ( 'creation_date' ) ;
#3 = DIRECTION ( 'NONE',  ( 3.491481338843133355E-15, -1.198223107250220118E-16, 1.000000000000000000 ) ) ;
#4 = FACE_BOUND ( 'NONE', #19, .T. ) ;
#5 = CONICAL_SURFACE ( 'NONE', #40, 1.999999999999998668, 0.5235987755983003700 ) ;
#6 = DIRECTION ( 'NONE',  ( 3.491481338843133355E-15, -1.198223107250220118E-16, 1.000000000000000000 ) ) ;
#7 = DIRECTION ( 'NONE',  ( 0.0000000000000000000, -1.000000000000000000, 0.0000000000000000000 ) ) ;
#8 = CIRCLE ( 'NONE', #50, 0.5999999999999999778 ) ;
#9 = DATE_AND_TIME ( #142, #198 ) ;
#10 = VERTEX_POINT ( 'NONE', #95 ) ;
#11 = AXIS2_PLACEMENT_3D ( 'NONE', #162, #108, #94 ) ;
#12 = CARTESIAN_POINT ( 'NONE',  ( 1.279487480628207755E-14, -1.000000000000000888, 3.664597792328893711 ) ) ;
#13 = AXIS2_PLACEMENT_3D ( 'NONE', #244, #243, #102 ) ;
#14 = PRODUCT ( '987598', '987598', '', ( #175 ) ) ;
#15 = CARTESIAN_POINT ( 'NONE',  ( -3.206893176761000815E-31, 1.124826709063586741E-32, -9.184907108292241390E-17 ) ) ;
#16 = CARTESIAN_POINT ( 'NONE',  ( 1.208052543239724267E-13, -4.237277925049843857E-15, 34.60000000000000853 ) ) ;
#17 = VERTEX_POINT ( 'NONE', #220 ) ;
#18 = PRODUCT_DEFINITION_FORMATION_WITH_SPECIFIED_SOURCE ( 'ANY', '', #14, .NOT_KNOWN. ) ;
#19 = EDGE_LOOP ( 'NONE', ( #211 ) ) ;
#20 = APPROVAL_DATE_TIME ( #252, #122 ) ;
#21 = EDGE_CURVE ( 'NONE', #17, #17, #77, .T. ) ;
#22 = PERSON_AND_ORGANIZATION ( #270, #99 ) ;
#23 = EDGE_LOOP ( 'NONE', ( #299 ) ) ;
#24 = EDGE_CURVE ( 'NONE', #199, #199, #36, .T. ) ;
#25 = DATE_AND_TIME ( #131, #293 ) ;
#26 = CC_DESIGN_APPROVAL ( #122, ( #18 ) ) ;
#27 = DIRECTION ( 'NONE',  ( 0.0000000000000000000, -1.000000000000000000, 0.0000000000000000000 ) ) ;
#28 = COORDINATED_UNIVERSAL_TIME_OFFSET ( 1, 0, .AHEAD. ) ;
#29 = CARTESIAN_POINT ( 'NONE',  ( 8.728703347107828655E-15, -2.995557768125549062E-16, 2.499999999999998668 ) ) ;
#30 = CLOSED_SHELL ( 'NONE', ( #181, #234, #292 ) ) ;
#31 = FACE_OUTER_BOUND ( 'NONE', #66, .T. ) ;
#32 = EDGE_LOOP ( 'NONE', ( #113 ) ) ;
#33 = CC_DESIGN_APPROVAL ( #167, ( #279 ) ) ;
#34 = EDGE_LOOP ( 'NONE', ( #63 ) ) ;
#35 = VERTEX_POINT ( 'NONE', #171 ) ;
#36 = CIRCLE ( 'NONE', #73, 1.000000000000000444 ) ;
#37 = DIRECTION ( 'NONE',  ( 3.491481338843133355E-15, -1.198223107250220118E-16, 1.000000000000000000 ) ) ;
#38 = LOCAL_TIME ( 15, 12, 42.00000000000000000, #103 ) ;
#39 = EDGE_CURVE ( 'NONE', #35, #35, #8, .T. ) ;
#40 = AXIS2_PLACEMENT_3D ( 'NONE', #76, #136, #54 ) ;
#41 = VERTEX_POINT ( 'NONE', #161 ) ;
#42 = DIRECTION ( 'NONE',  ( 0.0000000000000000000, -1.000000000000000000, 0.0000000000000000000 ) ) ;
#43 = CARTESIAN_POINT ( 'NONE',  ( 2.793185071074503213E-14, -9.585784858001749109E-16, 7.999999999999989342 ) ) ;
#44 = ORIENTED_EDGE ( 'NONE', *, *, #170, .F. ) ;
#45 = VERTEX_POINT ( 'NONE', #257 ) ;
#46 = PERSON_AND_ORGANIZATION_ROLE ( 'design_supplier' ) ;
#47 = ADVANCED_FACE ( 'NONE', ( #4, #53 ), #152, .T. ) ;
#48 = COORDINATED_UNIVERSAL_TIME_OFFSET ( 1, 0, .AHEAD. ) ;
#49 = AXIS2_PLACEMENT_3D ( 'NONE', #210, #216, #7 ) ;
#50 = AXIS2_PLACEMENT_3D ( 'NONE', #29, #6, #281 ) ;
#51 = FACE_OUTER_BOUND ( 'NONE', #23, .T. ) ;
#52 =( NAMED_UNIT ( * ) SI_UNIT ( $, .STERADIAN. ) SOLID_ANGLE_UNIT ( ) );
#53 = FACE_OUTER_BOUND ( 'NONE', #130, .T. ) ;
#54 = DIRECTION ( 'NONE',  ( 0.0000000000000000000, -1.000000000000000000, 0.0000000000000000000 ) ) ;
#55 = FACE_OUTER_BOUND ( 'NONE', #174, .T. ) ;
#56 = FACE_OUTER_BOUND ( 'NONE', #139, .T. ) ;
#57 = MANIFOLD_SOLID_BREP ( 'Corps-Déplacer/Copier1[2]', #30 ) ;
#58 = CYLINDRICAL_SURFACE ( 'NONE', #135, 1.999999999999998224 ) ;
#59 = UNCERTAINTY_MEASURE_WITH_UNIT (LENGTH_MEASURE( 1.000000000000000082E-05 ), #280, 'distance_accuracy_value', 'NONE');
#60 = AXIS2_PLACEMENT_3D ( 'NONE', #237, #188, #261 ) ;
#61 = APPLICATION_CONTEXT ( 'configuration controlled 3d designs of mechanical parts and assemblies' ) ;
#62 = DIRECTION ( 'NONE',  ( 0.0000000000000000000, -1.000000000000000000, 0.0000000000000000000 ) ) ;
#63 = ORIENTED_EDGE ( 'NONE', *, *, #300, .F. ) ;
#64 = APPROVAL_PERSON_ORGANIZATION ( #208, #167, #276 ) ;
#65 = DIRECTION ( 'NONE',  ( 3.491481338843133355E-15, -1.198223107250220118E-16, 1.000000000000000000 ) ) ;
#66 = EDGE_LOOP ( 'NONE', ( #44 ) ) ;
#67 = CARTESIAN_POINT ( 'NONE',  ( 2.094888803305880013E-14, -1.000000000000001776, 6.000000000000000000 ) ) ;
#68 = APPROVAL_STATUS ( 'not_yet_approved' ) ;
#69 = CALENDAR_DATE ( 2021, 8, 11 ) ;
#70 = SECURITY_CLASSIFICATION_LEVEL ( 'unclassified' ) ;
#71 = DIRECTION ( 'NONE',  ( 0.0000000000000000000, -1.000000000000000000, 0.0000000000000000000 ) ) ;
#72 = DIRECTION ( 'NONE',  ( 1.000000000000000000, 0.0000000000000000000, 0.0000000000000000000 ) ) ;
#73 = AXIS2_PLACEMENT_3D ( 'NONE', #277, #1, #71 ) ;
#74 = EDGE_LOOP ( 'NONE', ( #83 ) ) ;
#75 = ORIENTED_EDGE ( 'NONE', *, *, #215, .T. ) ;
#76 = CARTESIAN_POINT ( 'NONE',  ( 2.793185071074503213E-14, -9.585784858001749109E-16, 7.999999999999989342 ) ) ;
#77 = CIRCLE ( 'NONE', #49, 0.6761204674887132393 ) ;
#78 = FACE_OUTER_BOUND ( 'NONE', #176, .T. ) ;
#79 = CYLINDRICAL_SURFACE ( 'NONE', #186, 0.5999999999999999778 ) ;
#80 = CARTESIAN_POINT ( 'NONE',  ( 8.728703347107831810E-15, -5.421010862427531045E-16, 2.499999999999999556 ) ) ;
#81 = CARTESIAN_POINT ( 'NONE',  ( 0.0000000000000000000, 0.0000000000000000000, 0.0000000000000000000 ) ) ;
#82 = VERTEX_POINT ( 'NONE', #168 ) ;
#83 = ORIENTED_EDGE ( 'NONE', *, *, #39, .F. ) ;
#84 = AXIS2_PLACEMENT_3D ( 'NONE', #16, #268, #140 ) ;
#85 = DIRECTION ( 'NONE',  ( 3.491481338843133355E-15, -1.224646799147353454E-16, 1.000000000000000000 ) ) ;
#86 = PERSON_AND_ORGANIZATION_ROLE ( 'creator' ) ;
#87 = EDGE_LOOP ( 'NONE', ( #241 ) ) ;
#88 =( GEOMETRIC_REPRESENTATION_CONTEXT ( 3 ) GLOBAL_UNCERTAINTY_ASSIGNED_CONTEXT ( ( #59 ) ) GLOBAL_UNIT_ASSIGNED_CONTEXT ( ( #280, #180, #52 ) ) REPRESENTATION_CONTEXT ( 'NONE', 'WORKASPACE' ) );
#89 = PERSON_AND_ORGANIZATION ( #270, #99 ) ;
#90 = CARTESIAN_POINT ( 'NONE',  ( 1.279487480628207755E-14, -4.391005753546624172E-16, 3.664597792328893711 ) ) ;
#91 = DIRECTION ( 'NONE',  ( 0.0000000000000000000, -1.000000000000000000, 0.0000000000000000000 ) ) ;
#92 = CIRCLE ( 'NONE', #13, 1.600000000000000089 ) ;
#93 = FACE_OUTER_BOUND ( 'NONE', #32, .T. ) ;
#94 = DIRECTION ( 'NONE',  ( 4.275831445896959482E-31, 1.000000000000000000, 1.224646799147353454E-16 ) ) ;
#95 = CARTESIAN_POINT ( 'NONE',  ( -5.020288342481733079E-31, -0.5999999999999999778, -1.437867728700264043E-16 ) ) ;
#96 = CC_DESIGN_SECURITY_CLASSIFICATION ( #147, ( #18 ) ) ;
#97 = ADVANCED_BREP_SHAPE_REPRESENTATION ( '987598', ( #144, #57, #296 ), #88 ) ;
#98 = DIRECTION ( 'NONE',  ( 3.491481338843133355E-15, -1.198223107250220118E-16, 1.000000000000000000 ) ) ;
#99 = ORGANIZATION ( 'UNSPECIFIED', 'UNSPECIFIED', '' ) ;
#100 = ADVANCED_FACE ( 'NONE', ( #137, #55 ), #177, .F. ) ;
#101 = DIRECTION ( 'NONE',  ( -3.491481338843133355E-15, 1.224646799147353454E-16, -1.000000000000000000 ) ) ;
#102 = DIRECTION ( 'NONE',  ( 0.0000000000000000000, 1.000000000000000000, 0.0000000000000000000 ) ) ;
#103 = COORDINATED_UNIVERSAL_TIME_OFFSET ( 1, 0, .AHEAD. ) ;
#104 = ORIENTED_EDGE ( 'NONE', *, *, #170, .T. ) ;
#105 = DIRECTION ( 'NONE',  ( 0.0000000000000000000, 0.0000000000000000000, 1.000000000000000000 ) ) ;
#106 = EDGE_LOOP ( 'NONE', ( #104 ) ) ;
#107 = CALENDAR_DATE ( 2021, 8, 11 ) ;
#108 = DIRECTION ( 'NONE',  ( -3.491481338843133355E-15, 1.224646799147353454E-16, -1.000000000000000000 ) ) ;
#109 = SHAPE_DEFINITION_REPRESENTATION ( #240, #97 ) ;
#110 = ORIENTED_EDGE ( 'NONE', *, *, #24, .F. ) ;
#111 = LOCAL_TIME ( 15, 12, 42.00000000000000000, #28 ) ;
#112 = CARTESIAN_POINT ( 'NONE',  ( 2.094888803305880013E-14, -8.673617379884035472E-16, 6.000000000000000000 ) ) ;
#113 = ORIENTED_EDGE ( 'NONE', *, *, #24, .T. ) ;
#114 = VERTEX_POINT ( 'NONE', #218 ) ;
#115 = ADVANCED_FACE ( 'NONE', ( #78, #258 ), #118, .T. ) ;
#116 = DIRECTION ( 'NONE',  ( -4.275831445896959482E-31, -1.000000000000000000, -1.224646799147353454E-16 ) ) ;
#117 = DESIGN_CONTEXT ( 'detailed design', #127, 'design' ) ;
#118 = CONICAL_SURFACE ( 'NONE', #245, 1.600000000000000089, 0.7853981633974512766 ) ;
#119 = PLANE ( 'NONE',  #287 ) ;
#120 = EDGE_LOOP ( 'NONE', ( #284 ) ) ;
#121 = PLANE ( 'NONE',  #169 ) ;
#122 = APPROVAL ( #68, 'UNSPECIFIED' ) ;
#123 = CARTESIAN_POINT ( 'NONE',  ( 8.728703347107828655E-15, -2.168404344971008868E-16, 2.499999999999998668 ) ) ;
#124 = ADVANCED_FACE ( 'NONE', ( #214 ), #256, .F. ) ;
#125 = AXIS2_PLACEMENT_3D ( 'NONE', #15, #85, #116 ) ;
#126 = APPLICATION_PROTOCOL_DEFINITION ( 'international standard', 'config_control_design', 1994, #127 ) ;
#127 = APPLICATION_CONTEXT ( 'configuration controlled 3d designs of mechanical parts and assemblies' ) ;
#128 = ADVANCED_FACE ( 'NONE', ( #259, #51 ), #5, .T. ) ;
#129 = APPROVAL_STATUS ( 'not_yet_approved' ) ;
#130 = EDGE_LOOP ( 'NONE', ( #110 ) ) ;
#131 = CALENDAR_DATE ( 2021, 8, 11 ) ;
#132 = EDGE_LOOP ( 'NONE', ( #172 ) ) ;
#133 = CC_DESIGN_PERSON_AND_ORGANIZATION_ASSIGNMENT ( #159, #153, ( #14 ) ) ;
#134 = CARTESIAN_POINT ( 'NONE',  ( 0.0000000000000000000, 0.0000000000000000000, 0.0000000000000000000 ) ) ;
#135 = AXIS2_PLACEMENT_3D ( 'NONE', #224, #101, #141 ) ;
#136 = DIRECTION ( 'NONE',  ( 3.491481338843133355E-15, -1.198223107250220118E-16, 1.000000000000000000 ) ) ;
#137 = FACE_OUTER_BOUND ( 'NONE', #106, .T. ) ;
#138 = DIRECTION ( 'NONE',  ( 3.491481338843133355E-15, -1.198223107250220118E-16, 1.000000000000000000 ) ) ;
#139 = EDGE_LOOP ( 'NONE', ( #206 ) ) ;
#140 = DIRECTION ( 'NONE',  ( 0.0000000000000000000, 1.000000000000000000, 0.0000000000000000000 ) ) ;
#141 = DIRECTION ( 'NONE',  ( 4.275831445896958607E-31, 1.000000000000000000, 1.224646799147353454E-16 ) ) ;
#142 = CALENDAR_DATE ( 2021, 8, 11 ) ;
#143 = AXIS2_PLACEMENT_3D ( 'NONE', #232, #3, #91 ) ;
#144 = MANIFOLD_SOLID_BREP ( 'Corps-Déplacer/Copier1[1]', #195 ) ;
#145 = CARTESIAN_POINT ( 'NONE',  ( 1.208052543239724267E-13, 1.999999999999995781, 34.60000000000000853 ) ) ;
#146 = EDGE_LOOP ( 'NONE', ( #251 ) ) ;
#147 = SECURITY_CLASSIFICATION ( '', '', #70 ) ;
#148 = DIRECTION ( 'NONE',  ( -4.275831445896959482E-31, -1.000000000000000000, -1.224646799147353454E-16 ) ) ;
#149 = ORIENTED_EDGE ( 'NONE', *, *, #21, .F. ) ;
#150 = DIRECTION ( 'NONE',  ( -4.285709366439621733E-31, -1.000000000000000000, -1.198223107250220118E-16 ) ) ;
#151 = EDGE_LOOP ( 'NONE', ( #201 ) ) ;
#152 = CONICAL_SURFACE ( 'NONE', #196, 1.000000000000000444, 0.3926990816987256383 ) ;
#153 = PERSON_AND_ORGANIZATION_ROLE ( 'design_owner' ) ;
#154 = CC_DESIGN_DATE_AND_TIME_ASSIGNMENT ( #25, #303, ( #147 ) ) ;
#155 = CC_DESIGN_APPROVAL ( #301, ( #147 ) ) ;
#156 = PERSON_AND_ORGANIZATION_ROLE ( 'creator' ) ;
#157 = EDGE_CURVE ( 'NONE', #82, #82, #248, .T. ) ;
#158 = PERSON_AND_ORGANIZATION_ROLE ( 'classification_officer' ) ;
#159 = PERSON_AND_ORGANIZATION ( #270, #99 ) ;
#160 = ORIENTED_EDGE ( 'NONE', *, *, #238, .T. ) ;
#161 = CARTESIAN_POINT ( 'NONE',  ( 1.222018468595096801E-13, 1.599999999999995648, 35.00000000000000000 ) ) ;
#162 = CARTESIAN_POINT ( 'NONE',  ( 1.222018468595096801E-13, 1.199807826129480202E-32, 35.00000000000000000 ) ) ;
#163 = CARTESIAN_POINT ( 'NONE',  ( 1.222018468595096801E-13, -4.286263797015737285E-15, 35.00000000000000000 ) ) ;
#164 = CARTESIAN_POINT ( 'NONE',  ( 2.269462870248036996E-14, -7.788450197126431505E-16, 6.500000000000000888 ) ) ;
#165 = CARTESIAN_POINT ( 'NONE',  ( -2.510144171240866539E-31, 8.614431688490234250E-33, -7.189338643501320213E-17 ) ) ;
#166 = DIRECTION ( 'NONE',  ( 3.491481338843133355E-15, -1.198223107250220118E-16, 1.000000000000000000 ) ) ;
#167 = APPROVAL ( #129, 'UNSPECIFIED' ) ;
#168 = CARTESIAN_POINT ( 'NONE',  ( 2.269462870248036996E-14, -1.133974596215564068, 6.500000000000000888 ) ) ;
#169 = AXIS2_PLACEMENT_3D ( 'NONE', #80, #200, #289 ) ;
#170 = EDGE_CURVE ( 'NONE', #265, #265, #282, .T. ) ;
#171 = CARTESIAN_POINT ( 'NONE',  ( 8.728703347107828655E-15, -0.6000000000000003109, 2.499999999999998668 ) ) ;
#172 = ORIENTED_EDGE ( 'NONE', *, *, #157, .T. ) ;
#173 = CARTESIAN_POINT ( 'NONE',  ( 8.728703347107828655E-15, -2.995557768125549062E-16, 2.499999999999998668 ) ) ;
#174 = EDGE_LOOP ( 'NONE', ( #222 ) ) ;
#175 = MECHANICAL_CONTEXT ( 'NONE', #61, 'mechanical' ) ;
#176 = EDGE_LOOP ( 'NONE', ( #272 ) ) ;
#177 = TOROIDAL_SURFACE ( 'NONE', #189, 2.000000000000000888, 0.9999999999999995559 ) ;
#178 = COORDINATED_UNIVERSAL_TIME_OFFSET ( 1, 0, .AHEAD. ) ;
#179 = ADVANCED_FACE ( 'NONE', ( #93, #31 ), #187, .T. ) ;
#180 =( NAMED_UNIT ( * ) PLANE_ANGLE_UNIT ( ) SI_UNIT ( $, .RADIAN. ) );
#181 = ADVANCED_FACE ( 'NONE', ( #56 ), #121, .T. ) ;
#182 = APPROVAL_STATUS ( 'not_yet_approved' ) ;
#183 = DIRECTION ( 'NONE',  ( 3.491481338843133355E-15, -1.198223107250220118E-16, 1.000000000000000000 ) ) ;
#184 = CALENDAR_DATE ( 2021, 8, 11 ) ;
#185 = EDGE_LOOP ( 'NONE', ( #149 ) ) ;
#186 = AXIS2_PLACEMENT_3D ( 'NONE', #81, #190, #194 ) ;
#187 = CYLINDRICAL_SURFACE ( 'NONE', #60, 1.000000000000000888 ) ;
#188 = DIRECTION ( 'NONE',  ( 3.491481338843133355E-15, -1.198223107250220118E-16, 1.000000000000000000 ) ) ;
#189 = AXIS2_PLACEMENT_3D ( 'NONE', #112, #183, #283 ) ;
#190 = DIRECTION ( 'NONE',  ( 3.491481338843133355E-15, -1.198223107250220118E-16, 1.000000000000000000 ) ) ;
#191 = APPROVAL_ROLE ( '' ) ;
#192 = APPROVAL_PERSON_ORGANIZATION ( #89, #301, #191 ) ;
#193 = VERTEX_POINT ( 'NONE', #145 ) ;
#194 = DIRECTION ( 'NONE',  ( -4.183573618734778004E-31, -1.000000000000000000, -1.198223107250220118E-16 ) ) ;
#195 = CLOSED_SHELL ( 'NONE', ( #246, #115, #124, #128, #100, #179, #47, #217, #204 ) ) ;
#196 = AXIS2_PLACEMENT_3D ( 'NONE', #90, #229, #27 ) ;
#197 = AXIS2_PLACEMENT_3D ( 'NONE', #43, #65, #62 ) ;
#198 = LOCAL_TIME ( 15, 12, 42.00000000000000000, #242 ) ;
#199 = VERTEX_POINT ( 'NONE', #12 ) ;
#200 = DIRECTION ( 'NONE',  ( 3.491481338843133355E-15, -1.224646799147353454E-16, 1.000000000000000000 ) ) ;
#201 = ORIENTED_EDGE ( 'NONE', *, *, #267, .F. ) ;
#202 = AXIS2_PLACEMENT_3D ( 'NONE', #173, #37, #42 ) ;
#203 = EDGE_LOOP ( 'NONE', ( #297 ) ) ;
#204 = ADVANCED_FACE ( 'NONE', ( #294 ), #119, .F. ) ;
#205 = PERSON_AND_ORGANIZATION ( #270, #99 ) ;
#206 = ORIENTED_EDGE ( 'NONE', *, *, #300, .T. ) ;
#207 = CIRCLE ( 'NONE', #202, 0.5999999999999999778 ) ;
#208 = PERSON_AND_ORGANIZATION ( #270, #99 ) ;
#209 = CC_DESIGN_PERSON_AND_ORGANIZATION_ASSIGNMENT ( #22, #86, ( #279 ) ) ;
#210 = CARTESIAN_POINT ( 'NONE',  ( 1.006483540989498103E-14, -3.454097899547227508E-16, 2.882683432365089615 ) ) ;
#211 = ORIENTED_EDGE ( 'NONE', *, *, #21, .T. ) ;
#212 = EDGE_LOOP ( 'NONE', ( #75 ) ) ;
#213 = CIRCLE ( 'NONE', #84, 2.000000000000000000 ) ;
#214 = FACE_OUTER_BOUND ( 'NONE', #151, .T. ) ;
#215 = EDGE_CURVE ( 'NONE', #114, #114, #219, .T. ) ;
#216 = DIRECTION ( 'NONE',  ( 3.491481338843133355E-15, -1.198223107250220118E-16, 1.000000000000000000 ) ) ;
#217 = ADVANCED_FACE ( 'NONE', ( #295, #223 ), #239, .F. ) ;
#218 = CARTESIAN_POINT ( 'NONE',  ( 2.793185071074503213E-14, -1.999999999999999556, 7.999999999999989342 ) ) ;
#219 = CIRCLE ( 'NONE', #197, 1.999999999999998668 ) ;
#220 = CARTESIAN_POINT ( 'NONE',  ( 1.006483540989498103E-14, -0.6761204674887135724, 2.882683432365089615 ) ) ;
#221 = FACE_OUTER_BOUND ( 'NONE', #34, .T. ) ;
#222 = ORIENTED_EDGE ( 'NONE', *, *, #157, .F. ) ;
#223 = FACE_OUTER_BOUND ( 'NONE', #185, .T. ) ;
#224 = CARTESIAN_POINT ( 'NONE',  ( 0.0000000000000000000, 0.0000000000000000000, 0.0000000000000000000 ) ) ;
#225 = CIRCLE ( 'NONE', #230, 0.5999999999999999778 ) ;
#226 = EDGE_CURVE ( 'NONE', #10, #10, #225, .T. ) ;
#227 = APPROVAL_ROLE ( '' ) ;
#228 = CC_DESIGN_PERSON_AND_ORGANIZATION_ASSIGNMENT ( #254, #46, ( #18 ) ) ;
#229 = DIRECTION ( 'NONE',  ( 3.491481338843133355E-15, -1.198223107250220118E-16, 1.000000000000000000 ) ) ;
#230 = AXIS2_PLACEMENT_3D ( 'NONE', #165, #166, #264 ) ;
#231 = PERSON_AND_ORGANIZATION ( #270, #99 ) ;
#232 = CARTESIAN_POINT ( 'NONE',  ( 2.094888803305880013E-14, -7.189338643501320706E-16, 6.000000000000000000 ) ) ;
#233 = DATE_AND_TIME ( #184, #262 ) ;
#234 = ADVANCED_FACE ( 'NONE', ( #249, #221 ), #79, .T. ) ;
#235 = CC_DESIGN_PERSON_AND_ORGANIZATION_ASSIGNMENT ( #205, #158, ( #147 ) ) ;
#236 = DIRECTION ( 'NONE',  ( 0.0000000000000000000, -1.000000000000000000, 0.0000000000000000000 ) ) ;
#237 = CARTESIAN_POINT ( 'NONE',  ( 0.0000000000000000000, 0.0000000000000000000, 0.0000000000000000000 ) ) ;
#238 = EDGE_CURVE ( 'NONE', #193, #193, #213, .T. ) ;
#239 = TOROIDAL_SURFACE ( 'NONE', #266, 1.600000000000000089, 1.000000000000000222 ) ;
#240 = PRODUCT_DEFINITION_SHAPE ( 'NONE', 'NONE',  #279 ) ;
#241 = ORIENTED_EDGE ( 'NONE', *, *, #226, .T. ) ;
#242 = COORDINATED_UNIVERSAL_TIME_OFFSET ( 1, 0, .AHEAD. ) ;
#243 = DIRECTION ( 'NONE',  ( -3.491481338843133355E-15, 1.224646799147353454E-16, -1.000000000000000000 ) ) ;
#244 = CARTESIAN_POINT ( 'NONE',  ( 1.222018468595096801E-13, -4.286263797015737285E-15, 35.00000000000000000 ) ) ;
#245 = AXIS2_PLACEMENT_3D ( 'NONE', #163, #278, #260 ) ;
#246 = ADVANCED_FACE ( 'NONE', ( #250, #263 ), #58, .T. ) ;
#247 = DIRECTION ( 'NONE',  ( 3.491481338843133355E-15, -1.224646799147353454E-16, 1.000000000000000000 ) ) ;
#248 = CIRCLE ( 'NONE', #302, 1.133974596215563402 ) ;
#249 = FACE_OUTER_BOUND ( 'NONE', #87, .T. ) ;
#250 = FACE_OUTER_BOUND ( 'NONE', #269, .T. ) ;
#251 = ORIENTED_EDGE ( 'NONE', *, *, #267, .T. ) ;
#252 = DATE_AND_TIME ( #107, #111 ) ;
#253 = APPROVAL_PERSON_ORGANIZATION ( #231, #122, #227 ) ;
#254 = PERSON_AND_ORGANIZATION ( #270, #99 ) ;
#255 = APPLICATION_PROTOCOL_DEFINITION ( 'international standard', 'config_control_design', 1994, #61 ) ;
#256 = PLANE ( 'NONE',  #11 ) ;
#257 = CARTESIAN_POINT ( 'NONE',  ( 8.728703347107828655E-15, -0.6000000000000003109, 2.499999999999998668 ) ) ;
#258 = FACE_BOUND ( 'NONE', #146, .T. ) ;
#259 = FACE_BOUND ( 'NONE', #132, .T. ) ;
#260 = DIRECTION ( 'NONE',  ( 0.0000000000000000000, 1.000000000000000000, 0.0000000000000000000 ) ) ;
#261 = DIRECTION ( 'NONE',  ( -4.183573618734778004E-31, -1.000000000000000000, -1.198223107250220364E-16 ) ) ;
#262 = LOCAL_TIME ( 15, 12, 42.00000000000000000, #178 ) ;
#263 = FACE_OUTER_BOUND ( 'NONE', #212, .T. ) ;
#264 = DIRECTION ( 'NONE',  ( -4.183573618734778004E-31, -1.000000000000000000, -1.198223107250220118E-16 ) ) ;
#265 = VERTEX_POINT ( 'NONE', #67 ) ;
#266 = AXIS2_PLACEMENT_3D ( 'NONE', #123, #98, #150 ) ;
#267 = EDGE_CURVE ( 'NONE', #41, #41, #92, .T. ) ;
#268 = DIRECTION ( 'NONE',  ( -3.491481338843133355E-15, 1.224646799147353454E-16, -1.000000000000000000 ) ) ;
#269 = EDGE_LOOP ( 'NONE', ( #160 ) ) ;
#270 = PERSON ( 'UNSPECIFIED', 'UNSPECIFIED', 'UNSPECIFIED', ('UNSPECIFIED'), ('UNSPECIFIED'), ('UNSPECIFIED') ) ;
#271 = PLANE ( 'NONE',  #125 ) ;
#272 = ORIENTED_EDGE ( 'NONE', *, *, #238, .F. ) ;
#273 = DATE_AND_TIME ( #69, #38 ) ;
#274 = PERSON_AND_ORGANIZATION ( #270, #99 ) ;
#275 = PRODUCT_RELATED_PRODUCT_CATEGORY ( 'detail', '', ( #14 ) ) ;
#276 = APPROVAL_ROLE ( '' ) ;
#277 = CARTESIAN_POINT ( 'NONE',  ( 1.279487480628207755E-14, -4.391005753546624172E-16, 3.664597792328893711 ) ) ;
#278 = DIRECTION ( 'NONE',  ( -3.491481338843133355E-15, 1.224646799147353454E-16, -1.000000000000000000 ) ) ;
#279 = PRODUCT_DEFINITION ( 'UNKNOWN', '', #18, #117 ) ;
#280 =( LENGTH_UNIT ( ) NAMED_UNIT ( * ) SI_UNIT ( .MILLI., .METRE. ) );
#281 = DIRECTION ( 'NONE',  ( 0.0000000000000000000, -1.000000000000000000, 0.0000000000000000000 ) ) ;
#282 = CIRCLE ( 'NONE', #143, 1.000000000000001110 ) ;
#283 = DIRECTION ( 'NONE',  ( -4.183573618734778004E-31, -1.000000000000000000, -1.198223107250220118E-16 ) ) ;
#284 = ORIENTED_EDGE ( 'NONE', *, *, #226, .F. ) ;
#285 = CC_DESIGN_DATE_AND_TIME_ASSIGNMENT ( #273, #2, ( #279 ) ) ;
#286 = CARTESIAN_POINT ( 'NONE',  ( 8.728703347107831810E-15, -5.421010862427531045E-16, 2.499999999999999556 ) ) ;
#287 = AXIS2_PLACEMENT_3D ( 'NONE', #286, #247, #148 ) ;
#288 = APPROVAL_DATE_TIME ( #9, #301 ) ;
#289 = DIRECTION ( 'NONE',  ( -4.275831445896959482E-31, -1.000000000000000000, -1.224646799147353454E-16 ) ) ;
#290 = FACE_OUTER_BOUND ( 'NONE', #120, .T. ) ;
#291 = CC_DESIGN_PERSON_AND_ORGANIZATION_ASSIGNMENT ( #274, #156, ( #18 ) ) ;
#292 = ADVANCED_FACE ( 'NONE', ( #290 ), #271, .F. ) ;
#293 = LOCAL_TIME ( 15, 12, 42.00000000000000000, #48 ) ;
#294 = FACE_OUTER_BOUND ( 'NONE', #74, .T. ) ;
#295 = FACE_OUTER_BOUND ( 'NONE', #203, .T. ) ;
#296 = AXIS2_PLACEMENT_3D ( 'NONE', #134, #105, #72 ) ;
#297 = ORIENTED_EDGE ( 'NONE', *, *, #39, .T. ) ;
#298 = APPROVAL_DATE_TIME ( #233, #167 ) ;
#299 = ORIENTED_EDGE ( 'NONE', *, *, #215, .F. ) ;
#300 = EDGE_CURVE ( 'NONE', #45, #45, #207, .T. ) ;
#301 = APPROVAL ( #182, 'UNSPECIFIED' ) ;
#302 = AXIS2_PLACEMENT_3D ( 'NONE', #164, #138, #236 ) ;
#303 = DATE_TIME_ROLE ( 'classification_date' ) ;
ENDSEC;
END-ISO-10303-21;
