ISO-10303-21;
HEADER;
FILE_DESCRIPTION (( 'STEP AP203' ),
    '1' );
FILE_NAME ('987597.step',
    '2021-11-08T14:12:42',
    ( '' ),
    ( '' ),
    'SwSTEP 2.0',
    'SolidWorks 2019',
    '' );
FILE_SCHEMA (( 'CONFIG_CONTROL_DESIGN' ));
ENDSEC;

DATA;
#1 = AXIS2_PLACEMENT_3D ( 'NONE', #76, #243, #190 ) ;
#2 = COORDINATED_UNIVERSAL_TIME_OFFSET ( 1, 0, .AHEAD. ) ;
#3 = ORIENTED_EDGE ( 'NONE', *, *, #118, .T. ) ;
#4 = EDGE_LOOP ( 'NONE', ( #25 ) ) ;
#5 = PERSON_AND_ORGANIZATION_ROLE ( 'creator' ) ;
#6 = EDGE_LOOP ( 'NONE', ( #94 ) ) ;
#7 = CC_DESIGN_APPROVAL ( #24, ( #219 ) ) ;
#8 = APPLICATION_PROTOCOL_DEFINITION ( 'international standard', 'config_control_design', 1994, #71 ) ;
#9 = ORIENTED_EDGE ( 'NONE', *, *, #245, .T. ) ;
#10 = DIRECTION ( 'NONE',  ( -3.491481338843133355E-15, 1.224646799147353454E-16, -1.000000000000000000 ) ) ;
#11 = DIRECTION ( 'NONE',  ( 0.0000000000000000000, -1.000000000000000000, 0.0000000000000000000 ) ) ;
#12 = CLOSED_SHELL ( 'NONE', ( #79, #182, #149, #196, #232, #210, #301, #287, #21 ) ) ;
#13 = DIRECTION ( 'NONE',  ( 3.491481338843133355E-15, -1.198223107250220118E-16, 1.000000000000000000 ) ) ;
#14 = CARTESIAN_POINT ( 'NONE',  ( 1.208052543239724267E-13, -4.237277925049843857E-15, 34.60000000000000853 ) ) ;
#15 = CARTESIAN_POINT ( 'NONE',  ( 1.222018468595096801E-13, -4.286263797015737285E-15, 35.00000000000000000 ) ) ;
#16 = AXIS2_PLACEMENT_3D ( 'NONE', #14, #10, #57 ) ;
#17 = VERTEX_POINT ( 'NONE', #85 ) ;
#18 = FACE_OUTER_BOUND ( 'NONE', #186, .T. ) ;
#19 = CARTESIAN_POINT ( 'NONE',  ( -3.206893176761000815E-31, 1.124826709063586741E-32, -9.184907108292241390E-17 ) ) ;
#20 = CONICAL_SURFACE ( 'NONE', #195, 1.600000000000000089, 0.7853981633974512766 ) ;
#21 = ADVANCED_FACE ( 'NONE', ( #133 ), #28, .F. ) ;
#22 = ADVANCED_BREP_SHAPE_REPRESENTATION ( '987597', ( #249, #48, #264 ), #102 ) ;
#23 = FACE_BOUND ( 'NONE', #185, .T. ) ;
#24 = APPROVAL ( #55, 'UNSPECIFIED' ) ;
#25 = ORIENTED_EDGE ( 'NONE', *, *, #147, .T. ) ;
#26 = AXIS2_PLACEMENT_3D ( 'NONE', #100, #142, #166 ) ;
#27 = PERSON_AND_ORGANIZATION_ROLE ( 'creator' ) ;
#28 = PLANE ( 'NONE',  #175 ) ;
#29 = CYLINDRICAL_SURFACE ( 'NONE', #32, 1.999999999999998224 ) ;
#30 = PERSON_AND_ORGANIZATION ( #240, #124 ) ;
#31 = DIRECTION ( 'NONE',  ( 4.275831445896958607E-31, 1.000000000000000000, 1.224646799147353454E-16 ) ) ;
#32 = AXIS2_PLACEMENT_3D ( 'NONE', #112, #206, #31 ) ;
#33 = APPROVAL_DATE_TIME ( #233, #24 ) ;
#34 = DIRECTION ( 'NONE',  ( 0.0000000000000000000, 1.000000000000000000, 0.0000000000000000000 ) ) ;
#35 = FACE_BOUND ( 'NONE', #285, .T. ) ;
#36 = CIRCLE ( 'NONE', #80, 1.133974596215563402 ) ;
#37 = APPROVAL ( #254, 'UNSPECIFIED' ) ;
#38 = DIRECTION ( 'NONE',  ( 0.0000000000000000000, -1.000000000000000000, 0.0000000000000000000 ) ) ;
#39 = DIRECTION ( 'NONE',  ( 3.491481338843133355E-15, -1.198223107250220118E-16, 1.000000000000000000 ) ) ;
#40 = DIRECTION ( 'NONE',  ( 0.0000000000000000000, 0.0000000000000000000, 1.000000000000000000 ) ) ;
#41 = LOCAL_TIME ( 15, 12, 42.00000000000000000, #53 ) ;
#42 = CARTESIAN_POINT ( 'NONE',  ( 8.728703347107828655E-15, -0.5500000000000008216, 2.499999999999998668 ) ) ;
#43 = PRODUCT_DEFINITION_SHAPE ( 'NONE', 'NONE',  #248 ) ;
#44 = DIRECTION ( 'NONE',  ( -4.287712028159325324E-31, -1.000000000000000000, -1.198223107250220118E-16 ) ) ;
#45 = VERTEX_POINT ( 'NONE', #174 ) ;
#46 = CC_DESIGN_PERSON_AND_ORGANIZATION_ASSIGNMENT ( #151, #153, ( #219 ) ) ;
#47 = COORDINATED_UNIVERSAL_TIME_OFFSET ( 1, 0, .AHEAD. ) ;
#48 = MANIFOLD_SOLID_BREP ( 'Corps-Déplacer/Copier1[2]', #89 ) ;
#49 = APPROVAL_ROLE ( '' ) ;
#50 = ORIENTED_EDGE ( 'NONE', *, *, #226, .T. ) ;
#51 = AXIS2_PLACEMENT_3D ( 'NONE', #143, #160, #247 ) ;
#52 = DIRECTION ( 'NONE',  ( -4.275831445896959482E-31, -1.000000000000000000, -1.224646799147353454E-16 ) ) ;
#53 = COORDINATED_UNIVERSAL_TIME_OFFSET ( 1, 0, .AHEAD. ) ;
#54 = ORIENTED_EDGE ( 'NONE', *, *, #278, .F. ) ;
#55 = APPROVAL_STATUS ( 'not_yet_approved' ) ;
#56 = CARTESIAN_POINT ( 'NONE',  ( 1.222018468595096801E-13, -4.286263797015737285E-15, 35.00000000000000000 ) ) ;
#57 = DIRECTION ( 'NONE',  ( 0.0000000000000000000, 1.000000000000000000, 0.0000000000000000000 ) ) ;
#58 = PLANE ( 'NONE',  #26 ) ;
#59 = AXIS2_PLACEMENT_3D ( 'NONE', #293, #121, #140 ) ;
#60 = DIRECTION ( 'NONE',  ( 3.491481338843133355E-15, -1.198223107250220118E-16, 1.000000000000000000 ) ) ;
#61 = DIRECTION ( 'NONE',  ( -4.275831445896959482E-31, -1.000000000000000000, -1.224646799147353454E-16 ) ) ;
#62 = VERTEX_POINT ( 'NONE', #277 ) ;
#63 = CIRCLE ( 'NONE', #252, 1.000000000000000444 ) ;
#64 = AXIS2_PLACEMENT_3D ( 'NONE', #250, #198, #251 ) ;
#65 = DATE_TIME_ROLE ( 'classification_date' ) ;
#66 = EDGE_LOOP ( 'NONE', ( #50 ) ) ;
#67 = DATE_AND_TIME ( #132, #139 ) ;
#68 = ORIENTED_EDGE ( 'NONE', *, *, #200, .F. ) ;
#69 = CIRCLE ( 'NONE', #1, 0.5500000000000000444 ) ;
#70 = EDGE_LOOP ( 'NONE', ( #3 ) ) ;
#71 = APPLICATION_CONTEXT ( 'configuration controlled 3d designs of mechanical parts and assemblies' ) ;
#72 = CALENDAR_DATE ( 2021, 8, 11 ) ;
#73 = EDGE_LOOP ( 'NONE', ( #255 ) ) ;
#74 = ORIENTED_EDGE ( 'NONE', *, *, #245, .F. ) ;
#75 = TOROIDAL_SURFACE ( 'NONE', #97, 2.000000000000000888, 0.9999999999999995559 ) ;
#76 = CARTESIAN_POINT ( 'NONE',  ( -2.300965490304127990E-31, 7.896562381116048291E-33, -6.590227089876210401E-17 ) ) ;
#77 = DIRECTION ( 'NONE',  ( 3.491481338843133355E-15, -1.224646799147353454E-16, 1.000000000000000000 ) ) ;
#78 = FACE_BOUND ( 'NONE', #73, .T. ) ;
#79 = ADVANCED_FACE ( 'NONE', ( #237, #234 ), #29, .T. ) ;
#80 = AXIS2_PLACEMENT_3D ( 'NONE', #119, #60, #141 ) ;
#81 = CARTESIAN_POINT ( 'NONE',  ( 8.728703347107831810E-15, -5.421010862427531045E-16, 2.499999999999999556 ) ) ;
#82 = CARTESIAN_POINT ( 'NONE',  ( -4.601930980608255979E-31, -0.5500000000000000444, -1.318045417975242080E-16 ) ) ;
#83 = PLANE ( 'NONE',  #163 ) ;
#84 =( LENGTH_UNIT ( ) NAMED_UNIT ( * ) SI_UNIT ( .MILLI., .METRE. ) );
#85 = CARTESIAN_POINT ( 'NONE',  ( 1.222018468595096801E-13, 1.599999999999995648, 35.00000000000000000 ) ) ;
#86 = VERTEX_POINT ( 'NONE', #82 ) ;
#87 = CIRCLE ( 'NONE', #59, 0.5500000000000004885 ) ;
#88 = EDGE_LOOP ( 'NONE', ( #111 ) ) ;
#89 = CLOSED_SHELL ( 'NONE', ( #236, #294, #292 ) ) ;
#90 = PERSON_AND_ORGANIZATION ( #240, #124 ) ;
#91 = TOROIDAL_SURFACE ( 'NONE', #275, 1.550000000000000488, 1.000000000000000000 ) ;
#92 = AXIS2_PLACEMENT_3D ( 'NONE', #81, #77, #192 ) ;
#93 = COORDINATED_UNIVERSAL_TIME_OFFSET ( 1, 0, .AHEAD. ) ;
#94 = ORIENTED_EDGE ( 'NONE', *, *, #147, .F. ) ;
#95 = DATE_TIME_ROLE ( 'creation_date' ) ;
#96 = FACE_OUTER_BOUND ( 'NONE', #66, .T. ) ;
#97 = AXIS2_PLACEMENT_3D ( 'NONE', #165, #98, #217 ) ;
#98 = DIRECTION ( 'NONE',  ( 3.491481338843133355E-15, -1.198223107250220118E-16, 1.000000000000000000 ) ) ;
#99 = CYLINDRICAL_SURFACE ( 'NONE', #169, 1.000000000000000888 ) ;
#100 = CARTESIAN_POINT ( 'NONE',  ( 1.222018468595096801E-13, 1.199807826129480202E-32, 35.00000000000000000 ) ) ;
#101 = CC_DESIGN_PERSON_AND_ORGANIZATION_ASSIGNMENT ( #225, #207, ( #260 ) ) ;
#102 =( GEOMETRIC_REPRESENTATION_CONTEXT ( 3 ) GLOBAL_UNCERTAINTY_ASSIGNED_CONTEXT ( ( #120 ) ) GLOBAL_UNIT_ASSIGNED_CONTEXT ( ( #84, #279, #171 ) ) REPRESENTATION_CONTEXT ( 'NONE', 'WORKASPACE' ) );
#103 = PLANE ( 'NONE',  #92 ) ;
#104 = CARTESIAN_POINT ( 'NONE',  ( 2.793185071074503213E-14, -1.999999999999999556, 7.999999999999989342 ) ) ;
#105 = CARTESIAN_POINT ( 'NONE',  ( 8.728703347107828655E-15, -2.168404344971008868E-16, 2.499999999999998668 ) ) ;
#106 = CIRCLE ( 'NONE', #284, 1.600000000000000089 ) ;
#107 = MECHANICAL_CONTEXT ( 'NONE', #167, 'mechanical' ) ;
#108 = CARTESIAN_POINT ( 'NONE',  ( 2.269462870248036996E-14, -1.133974596215564068, 6.500000000000000888 ) ) ;
#109 = ORIENTED_EDGE ( 'NONE', *, *, #127, .T. ) ;
#110 = LOCAL_TIME ( 15, 12, 42.00000000000000000, #47 ) ;
#111 = ORIENTED_EDGE ( 'NONE', *, *, #271, .F. ) ;
#112 = CARTESIAN_POINT ( 'NONE',  ( 0.0000000000000000000, 0.0000000000000000000, 0.0000000000000000000 ) ) ;
#113 = PERSON_AND_ORGANIZATION ( #240, #124 ) ;
#114 = DIRECTION ( 'NONE',  ( 3.491481338843133355E-15, -1.198223107250220118E-16, 1.000000000000000000 ) ) ;
#115 = CC_DESIGN_SECURITY_CLASSIFICATION ( #219, ( #290 ) ) ;
#116 = EDGE_LOOP ( 'NONE', ( #208 ) ) ;
#117 = CARTESIAN_POINT ( 'NONE',  ( 1.006483540989498103E-14, -3.454097899547227508E-16, 2.882683432365089615 ) ) ;
#118 = EDGE_CURVE ( 'NONE', #299, #299, #256, .T. ) ;
#119 = CARTESIAN_POINT ( 'NONE',  ( 2.269462870248036996E-14, -7.788450197126431505E-16, 6.500000000000000888 ) ) ;
#120 = UNCERTAINTY_MEASURE_WITH_UNIT (LENGTH_MEASURE( 1.000000000000000082E-05 ), #84, 'distance_accuracy_value', 'NONE');
#121 = DIRECTION ( 'NONE',  ( 3.491481338843133355E-15, -1.198223107250220118E-16, 1.000000000000000000 ) ) ;
#122 = FACE_OUTER_BOUND ( 'NONE', #257, .T. ) ;
#123 = DIRECTION ( 'NONE',  ( -3.491481338843133355E-15, 1.224646799147353454E-16, -1.000000000000000000 ) ) ;
#124 = ORGANIZATION ( 'UNSPECIFIED', 'UNSPECIFIED', '' ) ;
#125 = EDGE_CURVE ( 'NONE', #86, #86, #69, .T. ) ;
#126 = VERTEX_POINT ( 'NONE', #302 ) ;
#127 = EDGE_CURVE ( 'NONE', #168, #168, #244, .T. ) ;
#128 = CC_DESIGN_DATE_AND_TIME_ASSIGNMENT ( #286, #95, ( #248 ) ) ;
#129 = FACE_OUTER_BOUND ( 'NONE', #154, .T. ) ;
#130 = LOCAL_TIME ( 15, 12, 42.00000000000000000, #2 ) ;
#131 = PRODUCT_RELATED_PRODUCT_CATEGORY ( 'detail', '', ( #260 ) ) ;
#132 = CALENDAR_DATE ( 2021, 8, 11 ) ;
#133 = FACE_OUTER_BOUND ( 'NONE', #6, .T. ) ;
#134 = DIRECTION ( 'NONE',  ( 3.491481338843133355E-15, -1.224646799147353454E-16, 1.000000000000000000 ) ) ;
#135 = EDGE_LOOP ( 'NONE', ( #180 ) ) ;
#136 = DATE_AND_TIME ( #261, #130 ) ;
#137 = ORIENTED_EDGE ( 'NONE', *, *, #278, .T. ) ;
#138 = AXIS2_PLACEMENT_3D ( 'NONE', #259, #114, #11 ) ;
#139 = LOCAL_TIME ( 15, 12, 42.00000000000000000, #93 ) ;
#140 = DIRECTION ( 'NONE',  ( 0.0000000000000000000, -1.000000000000000000, 0.0000000000000000000 ) ) ;
#141 = DIRECTION ( 'NONE',  ( 0.0000000000000000000, -1.000000000000000000, 0.0000000000000000000 ) ) ;
#142 = DIRECTION ( 'NONE',  ( -3.491481338843133355E-15, 1.224646799147353454E-16, -1.000000000000000000 ) ) ;
#143 = CARTESIAN_POINT ( 'NONE',  ( 8.728703347107828655E-15, -2.995557768125549062E-16, 2.499999999999998668 ) ) ;
#144 = CARTESIAN_POINT ( 'NONE',  ( 2.793185071074503213E-14, -9.585784858001749109E-16, 7.999999999999989342 ) ) ;
#145 = APPROVAL_PERSON_ORGANIZATION ( #177, #37, #49 ) ;
#146 = DIRECTION ( 'NONE',  ( 3.491481338843133355E-15, -1.198223107250220118E-16, 1.000000000000000000 ) ) ;
#147 = EDGE_CURVE ( 'NONE', #274, #274, #218, .T. ) ;
#148 = CARTESIAN_POINT ( 'NONE',  ( 0.0000000000000000000, 0.0000000000000000000, 0.0000000000000000000 ) ) ;
#149 = ADVANCED_FACE ( 'NONE', ( #162 ), #58, .F. ) ;
#150 = FACE_OUTER_BOUND ( 'NONE', #262, .T. ) ;
#151 = PERSON_AND_ORGANIZATION ( #240, #124 ) ;
#152 = EDGE_LOOP ( 'NONE', ( #109 ) ) ;
#153 = PERSON_AND_ORGANIZATION_ROLE ( 'classification_officer' ) ;
#154 = EDGE_LOOP ( 'NONE', ( #74 ) ) ;
#155 = CARTESIAN_POINT ( 'NONE',  ( 8.728703347107831810E-15, -5.421010862427531045E-16, 2.499999999999999556 ) ) ;
#156 = APPROVAL_DATE_TIME ( #67, #37 ) ;
#157 = EDGE_LOOP ( 'NONE', ( #9 ) ) ;
#158 = EDGE_LOOP ( 'NONE', ( #203 ) ) ;
#159 = APPROVAL_PERSON_ORGANIZATION ( #90, #231, #179 ) ;
#160 = DIRECTION ( 'NONE',  ( 3.491481338843133355E-15, -1.198223107250220118E-16, 1.000000000000000000 ) ) ;
#161 = FACE_OUTER_BOUND ( 'NONE', #283, .T. ) ;
#162 = FACE_OUTER_BOUND ( 'NONE', #263, .T. ) ;
#163 = AXIS2_PLACEMENT_3D ( 'NONE', #19, #276, #61 ) ;
#164 = CC_DESIGN_PERSON_AND_ORGANIZATION_ASSIGNMENT ( #227, #184, ( #290 ) ) ;
#165 = CARTESIAN_POINT ( 'NONE',  ( 2.094888803305880013E-14, -8.673617379884035472E-16, 6.000000000000000000 ) ) ;
#166 = DIRECTION ( 'NONE',  ( 4.275831445896959482E-31, 1.000000000000000000, 1.224646799147353454E-16 ) ) ;
#167 = APPLICATION_CONTEXT ( 'configuration controlled 3d designs of mechanical parts and assemblies' ) ;
#168 = VERTEX_POINT ( 'NONE', #298 ) ;
#169 = AXIS2_PLACEMENT_3D ( 'NONE', #273, #216, #189 ) ;
#170 = CARTESIAN_POINT ( 'NONE',  ( 8.728703347107828655E-15, -0.5500000000000008216, 2.499999999999998668 ) ) ;
#171 =( NAMED_UNIT ( * ) SI_UNIT ( $, .STERADIAN. ) SOLID_ANGLE_UNIT ( ) );
#172 = EDGE_CURVE ( 'NONE', #193, #193, #36, .T. ) ;
#173 = CC_DESIGN_DATE_AND_TIME_ASSIGNMENT ( #136, #65, ( #219 ) ) ;
#174 = CARTESIAN_POINT ( 'NONE',  ( 1.321633388633245472E-14, -1.000000000000000888, 3.785308470447547258 ) ) ;
#175 = AXIS2_PLACEMENT_3D ( 'NONE', #155, #134, #52 ) ;
#176 = CC_DESIGN_APPROVAL ( #37, ( #290 ) ) ;
#177 = PERSON_AND_ORGANIZATION ( #240, #124 ) ;
#178 = ORIENTED_EDGE ( 'NONE', *, *, #226, .F. ) ;
#179 = APPROVAL_ROLE ( '' ) ;
#180 = ORIENTED_EDGE ( 'NONE', *, *, #125, .F. ) ;
#181 = CONICAL_SURFACE ( 'NONE', #214, 1.999999999999998668, 0.5235987755983003700 ) ;
#182 = ADVANCED_FACE ( 'NONE', ( #268, #78 ), #20, .T. ) ;
#183 = LOCAL_TIME ( 15, 12, 42.00000000000000000, #204 ) ;
#184 = PERSON_AND_ORGANIZATION_ROLE ( 'design_supplier' ) ;
#185 = EDGE_LOOP ( 'NONE', ( #137 ) ) ;
#186 = EDGE_LOOP ( 'NONE', ( #239 ) ) ;
#187 = FACE_OUTER_BOUND ( 'NONE', #88, .T. ) ;
#188 = DIRECTION ( 'NONE',  ( 3.491481338843133355E-15, -1.198223107250220118E-16, 1.000000000000000000 ) ) ;
#189 = DIRECTION ( 'NONE',  ( -4.183573618734778004E-31, -1.000000000000000000, -1.198223107250220364E-16 ) ) ;
#190 = DIRECTION ( 'NONE',  ( -4.183573618734778004E-31, -1.000000000000000000, -1.198223107250219871E-16 ) ) ;
#191 = AXIS2_PLACEMENT_3D ( 'NONE', #223, #303, #194 ) ;
#192 = DIRECTION ( 'NONE',  ( -4.275831445896959482E-31, -1.000000000000000000, -1.224646799147353454E-16 ) ) ;
#193 = VERTEX_POINT ( 'NONE', #108 ) ;
#194 = DIRECTION ( 'NONE',  ( -4.183573618734778004E-31, -1.000000000000000000, -1.198223107250219871E-16 ) ) ;
#195 = AXIS2_PLACEMENT_3D ( 'NONE', #15, #246, #295 ) ;
#196 = ADVANCED_FACE ( 'NONE', ( #35, #122 ), #181, .T. ) ;
#197 = APPROVAL_PERSON_ORGANIZATION ( #205, #24, #253 ) ;
#198 = DIRECTION ( 'NONE',  ( 3.491481338843133355E-15, -1.198223107250220118E-16, 1.000000000000000000 ) ) ;
#199 = VERTEX_POINT ( 'NONE', #170 ) ;
#200 = EDGE_CURVE ( 'NONE', #17, #17, #106, .T. ) ;
#201 = APPROVAL_DATE_TIME ( #282, #231 ) ;
#202 = CC_DESIGN_APPROVAL ( #231, ( #248 ) ) ;
#203 = ORIENTED_EDGE ( 'NONE', *, *, #172, .F. ) ;
#204 = COORDINATED_UNIVERSAL_TIME_OFFSET ( 1, 0, .AHEAD. ) ;
#205 = PERSON_AND_ORGANIZATION ( #240, #124 ) ;
#206 = DIRECTION ( 'NONE',  ( -3.491481338843133355E-15, 1.224646799147353454E-16, -1.000000000000000000 ) ) ;
#207 = PERSON_AND_ORGANIZATION_ROLE ( 'design_owner' ) ;
#208 = ORIENTED_EDGE ( 'NONE', *, *, #127, .F. ) ;
#209 = CONICAL_SURFACE ( 'NONE', #64, 1.000000000000000444, 0.3926990816987251942 ) ;
#210 = ADVANCED_FACE ( 'NONE', ( #272, #187 ), #99, .T. ) ;
#211 = ORIENTED_EDGE ( 'NONE', *, *, #118, .F. ) ;
#212 = DIRECTION ( 'NONE',  ( 0.0000000000000000000, -1.000000000000000000, 0.0000000000000000000 ) ) ;
#213 = FACE_OUTER_BOUND ( 'NONE', #135, .T. ) ;
#214 = AXIS2_PLACEMENT_3D ( 'NONE', #144, #39, #38 ) ;
#215 = CARTESIAN_POINT ( 'NONE',  ( 1.321633388633245472E-14, -4.535644077360237448E-16, 3.785308470447547258 ) ) ;
#216 = DIRECTION ( 'NONE',  ( 3.491481338843133355E-15, -1.198223107250220118E-16, 1.000000000000000000 ) ) ;
#217 = DIRECTION ( 'NONE',  ( -4.183573618734778004E-31, -1.000000000000000000, -1.198223107250220118E-16 ) ) ;
#218 = CIRCLE ( 'NONE', #51, 0.5500000000000004885 ) ;
#219 = SECURITY_CLASSIFICATION ( '', '', #280 ) ;
#220 = DIRECTION ( 'NONE',  ( 1.000000000000000000, 0.0000000000000000000, 0.0000000000000000000 ) ) ;
#221 = CYLINDRICAL_SURFACE ( 'NONE', #191, 0.5500000000000002665 ) ;
#222 = APPLICATION_PROTOCOL_DEFINITION ( 'international standard', 'config_control_design', 1994, #167 ) ;
#223 = CARTESIAN_POINT ( 'NONE',  ( 0.0000000000000000000, 0.0000000000000000000, 0.0000000000000000000 ) ) ;
#224 = CC_DESIGN_PERSON_AND_ORGANIZATION_ASSIGNMENT ( #113, #27, ( #290 ) ) ;
#225 = PERSON_AND_ORGANIZATION ( #240, #124 ) ;
#226 = EDGE_CURVE ( 'NONE', #199, #199, #87, .T. ) ;
#227 = PERSON_AND_ORGANIZATION ( #240, #124 ) ;
#228 = ORIENTED_EDGE ( 'NONE', *, *, #172, .T. ) ;
#229 = SHAPE_DEFINITION_REPRESENTATION ( #43, #22 ) ;
#230 = AXIS2_PLACEMENT_3D ( 'NONE', #241, #13, #266 ) ;
#231 = APPROVAL ( #258, 'UNSPECIFIED' ) ;
#232 = ADVANCED_FACE ( 'NONE', ( #161, #291 ), #75, .F. ) ;
#233 = DATE_AND_TIME ( #238, #183 ) ;
#234 = FACE_OUTER_BOUND ( 'NONE', #70, .T. ) ;
#235 = CALENDAR_DATE ( 2021, 8, 11 ) ;
#236 = ADVANCED_FACE ( 'NONE', ( #96 ), #103, .T. ) ;
#237 = FACE_OUTER_BOUND ( 'NONE', #152, .T. ) ;
#238 = CALENDAR_DATE ( 2021, 8, 11 ) ;
#239 = ORIENTED_EDGE ( 'NONE', *, *, #125, .T. ) ;
#240 = PERSON ( 'UNSPECIFIED', 'UNSPECIFIED', 'UNSPECIFIED', ('UNSPECIFIED'), ('UNSPECIFIED'), ('UNSPECIFIED') ) ;
#241 = CARTESIAN_POINT ( 'NONE',  ( 2.094888803305880013E-14, -7.189338643501320706E-16, 6.000000000000000000 ) ) ;
#242 = FACE_OUTER_BOUND ( 'NONE', #288, .T. ) ;
#243 = DIRECTION ( 'NONE',  ( 3.491481338843133355E-15, -1.198223107250220118E-16, 1.000000000000000000 ) ) ;
#244 = CIRCLE ( 'NONE', #16, 2.000000000000000000 ) ;
#245 = EDGE_CURVE ( 'NONE', #45, #45, #63, .T. ) ;
#246 = DIRECTION ( 'NONE',  ( -3.491481338843133355E-15, 1.224646799147353454E-16, -1.000000000000000000 ) ) ;
#247 = DIRECTION ( 'NONE',  ( 0.0000000000000000000, -1.000000000000000000, 0.0000000000000000000 ) ) ;
#248 = PRODUCT_DEFINITION ( 'UNKNOWN', '', #290, #267 ) ;
#249 = MANIFOLD_SOLID_BREP ( 'Corps-Déplacer/Copier1[1]', #12 ) ;
#250 = CARTESIAN_POINT ( 'NONE',  ( 1.321633388633245472E-14, -4.535644077360237448E-16, 3.785308470447547258 ) ) ;
#251 = DIRECTION ( 'NONE',  ( 0.0000000000000000000, -1.000000000000000000, 0.0000000000000000000 ) ) ;
#252 = AXIS2_PLACEMENT_3D ( 'NONE', #215, #289, #297 ) ;
#253 = APPROVAL_ROLE ( '' ) ;
#254 = APPROVAL_STATUS ( 'not_yet_approved' ) ;
#255 = ORIENTED_EDGE ( 'NONE', *, *, #200, .T. ) ;
#256 = CIRCLE ( 'NONE', #138, 1.999999999999998668 ) ;
#257 = EDGE_LOOP ( 'NONE', ( #211 ) ) ;
#258 = APPROVAL_STATUS ( 'not_yet_approved' ) ;
#259 = CARTESIAN_POINT ( 'NONE',  ( 2.793185071074503213E-14, -9.585784858001749109E-16, 7.999999999999989342 ) ) ;
#260 = PRODUCT ( '987597', '987597', '', ( #107 ) ) ;
#261 = CALENDAR_DATE ( 2021, 8, 11 ) ;
#262 = EDGE_LOOP ( 'NONE', ( #178 ) ) ;
#263 = EDGE_LOOP ( 'NONE', ( #68 ) ) ;
#264 = AXIS2_PLACEMENT_3D ( 'NONE', #148, #40, #220 ) ;
#265 = FACE_OUTER_BOUND ( 'NONE', #4, .T. ) ;
#266 = DIRECTION ( 'NONE',  ( 0.0000000000000000000, -1.000000000000000000, 0.0000000000000000000 ) ) ;
#267 = DESIGN_CONTEXT ( 'detailed design', #71, 'design' ) ;
#268 = FACE_OUTER_BOUND ( 'NONE', #116, .T. ) ;
#269 = CIRCLE ( 'NONE', #270, 0.6261204674887140831 ) ;
#270 = AXIS2_PLACEMENT_3D ( 'NONE', #117, #188, #212 ) ;
#271 = EDGE_CURVE ( 'NONE', #62, #62, #296, .T. ) ;
#272 = FACE_OUTER_BOUND ( 'NONE', #157, .T. ) ;
#273 = CARTESIAN_POINT ( 'NONE',  ( 0.0000000000000000000, 0.0000000000000000000, 0.0000000000000000000 ) ) ;
#274 = VERTEX_POINT ( 'NONE', #42 ) ;
#275 = AXIS2_PLACEMENT_3D ( 'NONE', #105, #146, #44 ) ;
#276 = DIRECTION ( 'NONE',  ( 3.491481338843133355E-15, -1.224646799147353454E-16, 1.000000000000000000 ) ) ;
#277 = CARTESIAN_POINT ( 'NONE',  ( 2.094888803305880013E-14, -1.000000000000001776, 6.000000000000000000 ) ) ;
#278 = EDGE_CURVE ( 'NONE', #126, #126, #269, .T. ) ;
#279 =( NAMED_UNIT ( * ) PLANE_ANGLE_UNIT ( ) SI_UNIT ( $, .RADIAN. ) );
#280 = SECURITY_CLASSIFICATION_LEVEL ( 'unclassified' ) ;
#281 = ORIENTED_EDGE ( 'NONE', *, *, #271, .T. ) ;
#282 = DATE_AND_TIME ( #72, #41 ) ;
#283 = EDGE_LOOP ( 'NONE', ( #281 ) ) ;
#284 = AXIS2_PLACEMENT_3D ( 'NONE', #56, #123, #34 ) ;
#285 = EDGE_LOOP ( 'NONE', ( #228 ) ) ;
#286 = DATE_AND_TIME ( #235, #110 ) ;
#287 = ADVANCED_FACE ( 'NONE', ( #265, #242 ), #91, .F. ) ;
#288 = EDGE_LOOP ( 'NONE', ( #54 ) ) ;
#289 = DIRECTION ( 'NONE',  ( 3.491481338843133355E-15, -1.198223107250220118E-16, 1.000000000000000000 ) ) ;
#290 = PRODUCT_DEFINITION_FORMATION_WITH_SPECIFIED_SOURCE ( 'ANY', '', #260, .NOT_KNOWN. ) ;
#291 = FACE_OUTER_BOUND ( 'NONE', #158, .T. ) ;
#292 = ADVANCED_FACE ( 'NONE', ( #213 ), #83, .F. ) ;
#293 = CARTESIAN_POINT ( 'NONE',  ( 8.728703347107828655E-15, -2.995557768125549062E-16, 2.499999999999998668 ) ) ;
#294 = ADVANCED_FACE ( 'NONE', ( #18, #150 ), #221, .T. ) ;
#295 = DIRECTION ( 'NONE',  ( 0.0000000000000000000, 1.000000000000000000, 0.0000000000000000000 ) ) ;
#296 = CIRCLE ( 'NONE', #230, 1.000000000000001110 ) ;
#297 = DIRECTION ( 'NONE',  ( 0.0000000000000000000, -1.000000000000000000, 0.0000000000000000000 ) ) ;
#298 = CARTESIAN_POINT ( 'NONE',  ( 1.208052543239724267E-13, 1.999999999999995781, 34.60000000000000853 ) ) ;
#299 = VERTEX_POINT ( 'NONE', #104 ) ;
#300 = CC_DESIGN_PERSON_AND_ORGANIZATION_ASSIGNMENT ( #30, #5, ( #248 ) ) ;
#301 = ADVANCED_FACE ( 'NONE', ( #23, #129 ), #209, .T. ) ;
#302 = CARTESIAN_POINT ( 'NONE',  ( 1.006483540989498103E-14, -0.6261204674887144161, 2.882683432365089615 ) ) ;
#303 = DIRECTION ( 'NONE',  ( 3.491481338843133355E-15, -1.198223107250220118E-16, 1.000000000000000000 ) ) ;
ENDSEC;
END-ISO-10303-21;
