ISO-10303-21;
HEADER;
FILE_DESCRIPTION (( 'STEP AP203' ),
    '1' );
FILE_NAME ('987596.step',
    '2021-11-08T14:12:41',
    ( '' ),
    ( '' ),
    'SwSTEP 2.0',
    'SolidWorks 2019',
    '' );
FILE_SCHEMA (( 'CONFIG_CONTROL_DESIGN' ));
ENDSEC;

DATA;
#1 =( NAMED_UNIT ( * ) PLANE_ANGLE_UNIT ( ) SI_UNIT ( $, .RADIAN. ) );
#2 = EDGE_LOOP ( 'NONE', ( #74 ) ) ;
#3 = APPROVAL_ROLE ( '' ) ;
#4 = EDGE_LOOP ( 'NONE', ( #78 ) ) ;
#5 = DATE_AND_TIME ( #192, #152 ) ;
#6 = APPROVAL_ROLE ( '' ) ;
#7 = ORIENTED_EDGE ( 'NONE', *, *, #299, .T. ) ;
#8 = LOCAL_TIME ( 15, 12, 41.00000000000000000, #219 ) ;
#9 = CONICAL_SURFACE ( 'NONE', #18, 1.999999999999998668, 0.5235987755983001479 ) ;
#10 = DIRECTION ( 'NONE',  ( -3.491481338843133355E-15, 1.224646799147353454E-16, -1.000000000000000000 ) ) ;
#11 = DIRECTION ( 'NONE',  ( 3.491481338843133355E-15, -1.198223107250220118E-16, 1.000000000000000000 ) ) ;
#12 = AXIS2_PLACEMENT_3D ( 'NONE', #53, #23, #115 ) ;
#13 = APPROVAL ( #118, 'UNSPECIFIED' ) ;
#14 =( LENGTH_UNIT ( ) NAMED_UNIT ( * ) SI_UNIT ( .MILLI., .METRE. ) );
#15 = ADVANCED_FACE ( 'NONE', ( #252, #254 ), #272, .F. ) ;
#16 = CYLINDRICAL_SURFACE ( 'NONE', #288, 1.999999999999997780 ) ;
#17 = EDGE_LOOP ( 'NONE', ( #81 ) ) ;
#18 = AXIS2_PLACEMENT_3D ( 'NONE', #181, #125, #199 ) ;
#19 = DIRECTION ( 'NONE',  ( 3.491481338843133355E-15, -1.224646799147353454E-16, 1.000000000000000000 ) ) ;
#20 = EDGE_LOOP ( 'NONE', ( #242 ) ) ;
#21 = PLANE ( 'NONE',  #24 ) ;
#22 = EDGE_LOOP ( 'NONE', ( #77 ) ) ;
#23 = DIRECTION ( 'NONE',  ( 0.0000000000000000000, 0.0000000000000000000, 1.000000000000000000 ) ) ;
#24 = AXIS2_PLACEMENT_3D ( 'NONE', #277, #241, #25 ) ;
#25 = DIRECTION ( 'NONE',  ( -4.275831445896959482E-31, -1.000000000000000000, -1.224646799147353454E-16 ) ) ;
#26 = ORIENTED_EDGE ( 'NONE', *, *, #289, .F. ) ;
#27 = APPROVAL_DATE_TIME ( #260, #207 ) ;
#28 = EDGE_LOOP ( 'NONE', ( #217 ) ) ;
#29 = PERSON_AND_ORGANIZATION_ROLE ( 'classification_officer' ) ;
#30 = FACE_OUTER_BOUND ( 'NONE', #55, .T. ) ;
#31 = DIRECTION ( 'NONE',  ( -4.183573618734778004E-31, -1.000000000000000000, -1.198223107250220118E-16 ) ) ;
#32 = EDGE_CURVE ( 'NONE', #248, #248, #153, .T. ) ;
#33 = FACE_OUTER_BOUND ( 'NONE', #35, .T. ) ;
#34 = DIRECTION ( 'NONE',  ( -3.491481338843133355E-15, 1.224646799147353454E-16, -1.000000000000000000 ) ) ;
#35 = EDGE_LOOP ( 'NONE', ( #284 ) ) ;
#36 = AXIS2_PLACEMENT_3D ( 'NONE', #214, #19, #113 ) ;
#37 = CYLINDRICAL_SURFACE ( 'NONE', #86, 0.4000000000000001887 ) ;
#38 = CLOSED_SHELL ( 'NONE', ( #300, #245, #186, #230, #15, #235, #43, #193, #134 ) ) ;
#39 = PRODUCT ( '987596', '987596', '', ( #286 ) ) ;
#40 = VERTEX_POINT ( 'NONE', #90 ) ;
#41 = APPROVAL_PERSON_ORGANIZATION ( #216, #159, #173 ) ;
#42 = DIRECTION ( 'NONE',  ( -4.183573618734778879E-31, -1.000000000000000000, -1.198223107250220364E-16 ) ) ;
#43 = ADVANCED_FACE ( 'NONE', ( #258, #119 ), #158, .T. ) ;
#44 = DIRECTION ( 'NONE',  ( 0.0000000000000000000, -1.000000000000000000, 0.0000000000000000000 ) ) ;
#45 = DIRECTION ( 'NONE',  ( 0.0000000000000000000, -1.000000000000000000, 0.0000000000000000000 ) ) ;
#46 = CARTESIAN_POINT ( 'NONE',  ( -3.346858894987822490E-31, -0.4000000000000000222, -9.585784858001760695E-17 ) ) ;
#47 = ORIENTED_EDGE ( 'NONE', *, *, #32, .F. ) ;
#48 = COORDINATED_UNIVERSAL_TIME_OFFSET ( 1, 0, .AHEAD. ) ;
#49 = AXIS2_PLACEMENT_3D ( 'NONE', #67, #161, #45 ) ;
#50 = PERSON_AND_ORGANIZATION ( #281, #293 ) ;
#51 = DIRECTION ( 'NONE',  ( 3.491481338843133355E-15, -1.198223107250220118E-16, 1.000000000000000000 ) ) ;
#52 = CARTESIAN_POINT ( 'NONE',  ( 5.237222008264699244E-15, -1.626303258728260102E-16, 1.499999999999999778 ) ) ;
#53 = CARTESIAN_POINT ( 'NONE',  ( 0.0000000000000000000, 0.0000000000000000000, 0.0000000000000000000 ) ) ;
#54 = AXIS2_PLACEMENT_3D ( 'NONE', #275, #66, #112 ) ;
#55 = EDGE_LOOP ( 'NONE', ( #189 ) ) ;
#56 = CALENDAR_DATE ( 2021, 8, 11 ) ;
#57 = CARTESIAN_POINT ( 'NONE',  ( 5.237222008264699244E-15, -1.797334660875329930E-16, 1.499999999999999778 ) ) ;
#58 = UNCERTAINTY_MEASURE_WITH_UNIT (LENGTH_MEASURE( 1.000000000000000082E-05 ), #14, 'distance_accuracy_value', 'NONE');
#59 = AXIS2_PLACEMENT_3D ( 'NONE', #52, #211, #143 ) ;
#60 = PRODUCT_DEFINITION_FORMATION_WITH_SPECIFIED_SOURCE ( 'ANY', '', #39, .NOT_KNOWN. ) ;
#61 = MANIFOLD_SOLID_BREP ( 'Corps-Déplacer/Copier1[1]', #38 ) ;
#62 = DIRECTION ( 'NONE',  ( 3.491481338843133355E-15, -1.198223107250220118E-16, 1.000000000000000000 ) ) ;
#63 = VERTEX_POINT ( 'NONE', #46 ) ;
#64 = CARTESIAN_POINT ( 'NONE',  ( 1.780655482809998327E-14, -6.110937846976124030E-16, 5.100000000000001421 ) ) ;
#65 = AXIS2_PLACEMENT_3D ( 'NONE', #102, #10, #149 ) ;
#66 = DIRECTION ( 'NONE',  ( -3.491481338843133355E-15, 1.224646799147353454E-16, -1.000000000000000000 ) ) ;
#67 = CARTESIAN_POINT ( 'NONE',  ( 2.455563260450337867E-14, -8.427118332991551518E-16, 7.033012701892211282 ) ) ;
#68 = EDGE_LOOP ( 'NONE', ( #26 ) ) ;
#69 = COORDINATED_UNIVERSAL_TIME_OFFSET ( 1, 0, .AHEAD. ) ;
#70 = PLANE ( 'NONE',  #59 ) ;
#71 = PERSON_AND_ORGANIZATION_ROLE ( 'design_owner' ) ;
#72 = CIRCLE ( 'NONE', #49, 1.999999999999998668 ) ;
#73 = CARTESIAN_POINT ( 'NONE',  ( 1.606081415867841343E-14, -6.505213034913026604E-16, 4.599999999999999645 ) ) ;
#74 = ORIENTED_EDGE ( 'NONE', *, *, #32, .T. ) ;
#75 = DIRECTION ( 'NONE',  ( 0.0000000000000000000, -1.000000000000000000, 0.0000000000000000000 ) ) ;
#76 = PERSON_AND_ORGANIZATION_ROLE ( 'creator' ) ;
#77 = ORIENTED_EDGE ( 'NONE', *, *, #280, .F. ) ;
#78 = ORIENTED_EDGE ( 'NONE', *, *, #289, .T. ) ;
#79 = PERSON_AND_ORGANIZATION ( #281, #293 ) ;
#80 = LOCAL_TIME ( 15, 12, 41.00000000000000000, #69 ) ;
#81 = ORIENTED_EDGE ( 'NONE', *, *, #179, .T. ) ;
#82 = CLOSED_SHELL ( 'NONE', ( #130, #221, #126 ) ) ;
#83 = CARTESIAN_POINT ( 'NONE',  ( 1.222018468595096801E-13, -4.286263797015737285E-15, 35.00000000000000000 ) ) ;
#84 = FACE_OUTER_BOUND ( 'NONE', #2, .T. ) ;
#85 = CC_DESIGN_PERSON_AND_ORGANIZATION_ASSIGNMENT ( #79, #71, ( #39 ) ) ;
#86 = AXIS2_PLACEMENT_3D ( 'NONE', #100, #267, #31 ) ;
#87 = DIRECTION ( 'NONE',  ( 4.275831445896959482E-31, 1.000000000000000000, 1.224646799147353454E-16 ) ) ;
#88 = APPLICATION_CONTEXT ( 'configuration controlled 3d designs of mechanical parts and assemblies' ) ;
#89 = TOROIDAL_SURFACE ( 'NONE', #166, 1.400000000000000355, 1.000000000000000000 ) ;
#90 = CARTESIAN_POINT ( 'NONE',  ( 2.455563260450337867E-14, -1.999999999999999556, 7.033012701892211282 ) ) ;
#91 = VERTEX_POINT ( 'NONE', #183 ) ;
#92 = CARTESIAN_POINT ( 'NONE',  ( 1.606081415867841343E-14, -0.7500000000000008882, 4.599999999999999645 ) ) ;
#93 = EDGE_LOOP ( 'NONE', ( #141 ) ) ;
#94 = VERTEX_POINT ( 'NONE', #92 ) ;
#95 = ORIENTED_EDGE ( 'NONE', *, *, #287, .F. ) ;
#96 = LOCAL_TIME ( 15, 12, 41.00000000000000000, #220 ) ;
#97 = APPROVAL_STATUS ( 'not_yet_approved' ) ;
#98 = APPROVAL_DATE_TIME ( #5, #159 ) ;
#99 = SECURITY_CLASSIFICATION ( '', '', #140 ) ;
#100 = CARTESIAN_POINT ( 'NONE',  ( 0.0000000000000000000, 0.0000000000000000000, 0.0000000000000000000 ) ) ;
#101 = DIRECTION ( 'NONE',  ( 0.0000000000000000000, -1.000000000000000000, 0.0000000000000000000 ) ) ;
#102 = CARTESIAN_POINT ( 'NONE',  ( 1.208052543239724267E-13, -4.237277925049843857E-15, 34.60000000000000853 ) ) ;
#103 = DIRECTION ( 'NONE',  ( 3.491481338843133355E-15, -1.198223107250220118E-16, 1.000000000000000000 ) ) ;
#104 = FACE_OUTER_BOUND ( 'NONE', #146, .T. ) ;
#105 = AXIS2_PLACEMENT_3D ( 'NONE', #160, #11, #271 ) ;
#106 = DIRECTION ( 'NONE',  ( 0.0000000000000000000, -1.000000000000000000, 0.0000000000000000000 ) ) ;
#107 = DIRECTION ( 'NONE',  ( 3.491481338843133355E-15, -1.198223107250220118E-16, 1.000000000000000000 ) ) ;
#108 = AXIS2_PLACEMENT_3D ( 'NONE', #151, #224, #106 ) ;
#109 = CARTESIAN_POINT ( 'NONE',  ( 1.208052543239724267E-13, 1.999999999999995781, 34.60000000000000853 ) ) ;
#110 = VERTEX_POINT ( 'NONE', #129 ) ;
#111 = CARTESIAN_POINT ( 'NONE',  ( 8.881934387388560721E-15, -3.048144322482787821E-16, 2.543887114210238831 ) ) ;
#112 = DIRECTION ( 'NONE',  ( 0.0000000000000000000, 1.000000000000000000, 0.0000000000000000000 ) ) ;
#113 = DIRECTION ( 'NONE',  ( -4.275831445896959482E-31, -1.000000000000000000, -1.224646799147353454E-16 ) ) ;
#114 = ORIENTED_EDGE ( 'NONE', *, *, #234, .T. ) ;
#115 = DIRECTION ( 'NONE',  ( 1.000000000000000000, 0.0000000000000000000, 0.0000000000000000000 ) ) ;
#116 = DATE_AND_TIME ( #169, #80 ) ;
#117 = CIRCLE ( 'NONE', #190, 0.4000000000000000222 ) ;
#118 = APPROVAL_STATUS ( 'not_yet_approved' ) ;
#119 = FACE_OUTER_BOUND ( 'NONE', #22, .T. ) ;
#120 = DATE_AND_TIME ( #255, #8 ) ;
#121 = CC_DESIGN_PERSON_AND_ORGANIZATION_ASSIGNMENT ( #50, #142, ( #274 ) ) ;
#122 = CYLINDRICAL_SURFACE ( 'NONE', #251, 0.7500000000000003331 ) ;
#123 = APPROVAL_PERSON_ORGANIZATION ( #145, #207, #3 ) ;
#124 = AXIS2_PLACEMENT_3D ( 'NONE', #168, #139, #285 ) ;
#125 = DIRECTION ( 'NONE',  ( 3.491481338843133355E-15, -1.198223107250220118E-16, 1.000000000000000000 ) ) ;
#126 = ADVANCED_FACE ( 'NONE', ( #209 ), #171, .F. ) ;
#127 = CARTESIAN_POINT ( 'NONE',  ( 0.0000000000000000000, 0.0000000000000000000, 0.0000000000000000000 ) ) ;
#128 = CC_DESIGN_DATE_AND_TIME_ASSIGNMENT ( #282, #240, ( #274 ) ) ;
#129 = CARTESIAN_POINT ( 'NONE',  ( 1.222018468595096801E-13, 1.599999999999995648, 35.00000000000000000 ) ) ;
#130 = ADVANCED_FACE ( 'NONE', ( #236 ), #70, .T. ) ;
#131 = CC_DESIGN_SECURITY_CLASSIFICATION ( #99, ( #60 ) ) ;
#132 = DIRECTION ( 'NONE',  ( 0.0000000000000000000, -1.000000000000000000, 0.0000000000000000000 ) ) ;
#133 = DIRECTION ( 'NONE',  ( 4.275831445896958607E-31, 1.000000000000000000, 1.224646799147353700E-16 ) ) ;
#134 = ADVANCED_FACE ( 'NONE', ( #256 ), #21, .F. ) ;
#135 = FACE_OUTER_BOUND ( 'NONE', #165, .T. ) ;
#136 = AXIS2_PLACEMENT_3D ( 'NONE', #269, #34, #87 ) ;
#137 = ORIENTED_EDGE ( 'NONE', *, *, #175, .T. ) ;
#138 = PERSON_AND_ORGANIZATION_ROLE ( 'design_supplier' ) ;
#139 = DIRECTION ( 'NONE',  ( 3.491481338843133355E-15, -1.198223107250220118E-16, 1.000000000000000000 ) ) ;
#140 = SECURITY_CLASSIFICATION_LEVEL ( 'unclassified' ) ;
#141 = ORIENTED_EDGE ( 'NONE', *, *, #156, .F. ) ;
#142 = PERSON_AND_ORGANIZATION_ROLE ( 'creator' ) ;
#143 = DIRECTION ( 'NONE',  ( -4.275831445896959482E-31, -1.000000000000000000, -1.224646799147353454E-16 ) ) ;
#144 = AXIS2_PLACEMENT_3D ( 'NONE', #111, #51, #75 ) ;
#145 = PERSON_AND_ORGANIZATION ( #281, #293 ) ;
#146 = EDGE_LOOP ( 'NONE', ( #265 ) ) ;
#147 = DATE_TIME_ROLE ( 'classification_date' ) ;
#148 = ADVANCED_BREP_SHAPE_REPRESENTATION ( '987596', ( #61, #261, #12 ), #203 ) ;
#149 = DIRECTION ( 'NONE',  ( 0.0000000000000000000, 1.000000000000000000, 0.0000000000000000000 ) ) ;
#150 = FACE_OUTER_BOUND ( 'NONE', #20, .T. ) ;
#151 = CARTESIAN_POINT ( 'NONE',  ( 1.606081415867841343E-14, -5.511826293351012246E-16, 4.599999999999999645 ) ) ;
#152 = LOCAL_TIME ( 15, 12, 41.00000000000000000, #48 ) ;
#153 = CIRCLE ( 'NONE', #124, 0.4000000000000003553 ) ;
#154 = DIRECTION ( 'NONE',  ( -3.491481338843133355E-15, 1.224646799147353454E-16, -1.000000000000000000 ) ) ;
#155 = ORIENTED_EDGE ( 'NONE', *, *, #179, .F. ) ;
#156 = EDGE_CURVE ( 'NONE', #40, #40, #72, .T. ) ;
#157 = DIRECTION ( 'NONE',  ( -4.183573618734778004E-31, -1.000000000000000000, -1.198223107250220118E-16 ) ) ;
#158 = CONICAL_SURFACE ( 'NONE', #144, 0.7500000000000003331, 0.3926990816987250277 ) ;
#159 = APPROVAL ( #97, 'UNSPECIFIED' ) ;
#160 = CARTESIAN_POINT ( 'NONE',  ( 8.881934387388560721E-15, -3.048144322482787821E-16, 2.543887114210238831 ) ) ;
#161 = DIRECTION ( 'NONE',  ( 3.491481338843133355E-15, -1.198223107250220118E-16, 1.000000000000000000 ) ) ;
#162 = CARTESIAN_POINT ( 'NONE',  ( 8.881934387388560721E-15, -0.7500000000000006661, 2.543887114210238831 ) ) ;
#163 = PRODUCT_DEFINITION_SHAPE ( 'NONE', 'NONE',  #274 ) ;
#164 = APPROVAL_DATE_TIME ( #116, #13 ) ;
#165 = EDGE_LOOP ( 'NONE', ( #172 ) ) ;
#166 = AXIS2_PLACEMENT_3D ( 'NONE', #226, #62, #290 ) ;
#167 = PERSON_AND_ORGANIZATION ( #281, #293 ) ;
#168 = CARTESIAN_POINT ( 'NONE',  ( 5.237222008264699244E-15, -1.797334660875329930E-16, 1.499999999999999778 ) ) ;
#169 = CALENDAR_DATE ( 2021, 8, 11 ) ;
#170 = APPLICATION_CONTEXT ( 'configuration controlled 3d designs of mechanical parts and assemblies' ) ;
#171 = PLANE ( 'NONE',  #36 ) ;
#172 = ORIENTED_EDGE ( 'NONE', *, *, #156, .T. ) ;
#173 = APPROVAL_ROLE ( '' ) ;
#174 = CIRCLE ( 'NONE', #108, 0.7500000000000003331 ) ;
#175 = EDGE_CURVE ( 'NONE', #210, #210, #223, .T. ) ;
#176 = DESIGN_CONTEXT ( 'detailed design', #88, 'design' ) ;
#177 = ORIENTED_EDGE ( 'NONE', *, *, #232, .F. ) ;
#178 = FACE_BOUND ( 'NONE', #28, .T. ) ;
#179 = EDGE_CURVE ( 'NONE', #110, #110, #208, .T. ) ;
#180 = FACE_OUTER_BOUND ( 'NONE', #93, .T. ) ;
#181 = CARTESIAN_POINT ( 'NONE',  ( 2.455563260450337867E-14, -8.427118332991551518E-16, 7.033012701892211282 ) ) ;
#182 = CARTESIAN_POINT ( 'NONE',  ( 5.237222008264699244E-15, -0.4000000000000005218, 1.499999999999999778 ) ) ;
#183 = CARTESIAN_POINT ( 'NONE',  ( 1.780655482809998327E-14, -0.8839745962155630687, 5.100000000000001421 ) ) ;
#184 = EDGE_LOOP ( 'NONE', ( #215 ) ) ;
#185 = DIRECTION ( 'NONE',  ( 3.491481338843133355E-15, -1.198223107250220118E-16, 1.000000000000000000 ) ) ;
#186 = ADVANCED_FACE ( 'NONE', ( #249 ), #200, .F. ) ;
#187 = CIRCLE ( 'NONE', #276, 0.8839745962155624026 ) ;
#188 = APPLICATION_PROTOCOL_DEFINITION ( 'international standard', 'config_control_design', 1994, #88 ) ;
#189 = ORIENTED_EDGE ( 'NONE', *, *, #234, .F. ) ;
#190 = AXIS2_PLACEMENT_3D ( 'NONE', #273, #301, #157 ) ;
#191 = EDGE_LOOP ( 'NONE', ( #177 ) ) ;
#192 = CALENDAR_DATE ( 2021, 8, 11 ) ;
#193 = ADVANCED_FACE ( 'NONE', ( #84, #150 ), #89, .F. ) ;
#194 = DIRECTION ( 'NONE',  ( 3.491481338843133355E-15, -1.198223107250220118E-16, 1.000000000000000000 ) ) ;
#195 = SHAPE_DEFINITION_REPRESENTATION ( #163, #148 ) ;
#196 = PERSON_AND_ORGANIZATION ( #281, #293 ) ;
#197 = CIRCLE ( 'NONE', #105, 0.7500000000000003331 ) ;
#198 = AXIS2_PLACEMENT_3D ( 'NONE', #83, #291, #294 ) ;
#199 = DIRECTION ( 'NONE',  ( 0.0000000000000000000, -1.000000000000000000, 0.0000000000000000000 ) ) ;
#200 = PLANE ( 'NONE',  #136 ) ;
#201 = FACE_OUTER_BOUND ( 'NONE', #184, .T. ) ;
#202 = EDGE_LOOP ( 'NONE', ( #114 ) ) ;
#203 =( GEOMETRIC_REPRESENTATION_CONTEXT ( 3 ) GLOBAL_UNCERTAINTY_ASSIGNED_CONTEXT ( ( #58 ) ) GLOBAL_UNIT_ASSIGNED_CONTEXT ( ( #14, #1, #247 ) ) REPRESENTATION_CONTEXT ( 'NONE', 'WORKASPACE' ) );
#204 = CC_DESIGN_PERSON_AND_ORGANIZATION_ASSIGNMENT ( #167, #76, ( #60 ) ) ;
#205 = FACE_OUTER_BOUND ( 'NONE', #191, .T. ) ;
#206 = FACE_BOUND ( 'NONE', #17, .T. ) ;
#207 = APPROVAL ( #243, 'UNSPECIFIED' ) ;
#208 = CIRCLE ( 'NONE', #198, 1.600000000000000089 ) ;
#209 = FACE_OUTER_BOUND ( 'NONE', #68, .T. ) ;
#210 = VERTEX_POINT ( 'NONE', #182 ) ;
#211 = DIRECTION ( 'NONE',  ( 3.491481338843133355E-15, -1.224646799147353454E-16, 1.000000000000000000 ) ) ;
#212 = EDGE_LOOP ( 'NONE', ( #137 ) ) ;
#213 = EDGE_LOOP ( 'NONE', ( #155 ) ) ;
#214 = CARTESIAN_POINT ( 'NONE',  ( -3.206893176761000815E-31, 1.124826709063586741E-32, -9.184907108292241390E-17 ) ) ;
#215 = ORIENTED_EDGE ( 'NONE', *, *, #232, .T. ) ;
#216 = PERSON_AND_ORGANIZATION ( #281, #293 ) ;
#217 = ORIENTED_EDGE ( 'NONE', *, *, #287, .T. ) ;
#218 = CC_DESIGN_DATE_AND_TIME_ASSIGNMENT ( #120, #147, ( #99 ) ) ;
#219 = COORDINATED_UNIVERSAL_TIME_OFFSET ( 1, 0, .AHEAD. ) ;
#220 = COORDINATED_UNIVERSAL_TIME_OFFSET ( 1, 0, .AHEAD. ) ;
#221 = ADVANCED_FACE ( 'NONE', ( #295, #33 ), #37, .T. ) ;
#222 = APPLICATION_PROTOCOL_DEFINITION ( 'international standard', 'config_control_design', 1994, #170 ) ;
#223 = CIRCLE ( 'NONE', #244, 0.4000000000000003553 ) ;
#224 = DIRECTION ( 'NONE',  ( 3.491481338843133355E-15, -1.198223107250220118E-16, 1.000000000000000000 ) ) ;
#225 = CIRCLE ( 'NONE', #246, 0.4761204674887141164 ) ;
#226 = CARTESIAN_POINT ( 'NONE',  ( 5.237222008264697666E-15, -2.168404344971008868E-16, 1.499999999999999334 ) ) ;
#227 = CARTESIAN_POINT ( 'NONE',  ( 0.0000000000000000000, 0.0000000000000000000, 0.0000000000000000000 ) ) ;
#228 = VERTEX_POINT ( 'NONE', #109 ) ;
#229 = EDGE_LOOP ( 'NONE', ( #95 ) ) ;
#230 = ADVANCED_FACE ( 'NONE', ( #178, #180 ), #9, .T. ) ;
#231 = CARTESIAN_POINT ( 'NONE',  ( 6.573354071051850829E-15, -2.255874792297007883E-16, 1.882683432365090059 ) ) ;
#232 = EDGE_CURVE ( 'NONE', #228, #228, #283, .T. ) ;
#233 = CONICAL_SURFACE ( 'NONE', #54, 1.600000000000000089, 0.7853981633974512766 ) ;
#234 = EDGE_CURVE ( 'NONE', #94, #94, #174, .T. ) ;
#235 = ADVANCED_FACE ( 'NONE', ( #104, #30 ), #122, .T. ) ;
#236 = FACE_OUTER_BOUND ( 'NONE', #212, .T. ) ;
#237 = PERSON_AND_ORGANIZATION ( #281, #293 ) ;
#238 = PRODUCT_RELATED_PRODUCT_CATEGORY ( 'detail', '', ( #39 ) ) ;
#239 = EDGE_LOOP ( 'NONE', ( #47 ) ) ;
#240 = DATE_TIME_ROLE ( 'creation_date' ) ;
#241 = DIRECTION ( 'NONE',  ( 3.491481338843133355E-15, -1.224646799147353454E-16, 1.000000000000000000 ) ) ;
#242 = ORIENTED_EDGE ( 'NONE', *, *, #299, .F. ) ;
#243 = APPROVAL_STATUS ( 'not_yet_approved' ) ;
#244 = AXIS2_PLACEMENT_3D ( 'NONE', #57, #103, #101 ) ;
#245 = ADVANCED_FACE ( 'NONE', ( #205, #206 ), #233, .T. ) ;
#246 = AXIS2_PLACEMENT_3D ( 'NONE', #231, #302, #44 ) ;
#247 =( NAMED_UNIT ( * ) SI_UNIT ( $, .STERADIAN. ) SOLID_ANGLE_UNIT ( ) );
#248 = VERTEX_POINT ( 'NONE', #298 ) ;
#249 = FACE_OUTER_BOUND ( 'NONE', #213, .T. ) ;
#250 = VERTEX_POINT ( 'NONE', #253 ) ;
#251 = AXIS2_PLACEMENT_3D ( 'NONE', #127, #185, #42 ) ;
#252 = FACE_OUTER_BOUND ( 'NONE', #202, .T. ) ;
#253 = CARTESIAN_POINT ( 'NONE',  ( 6.573354071051850829E-15, -0.4761204674887143384, 1.882683432365090059 ) ) ;
#254 = FACE_OUTER_BOUND ( 'NONE', #229, .T. ) ;
#255 = CALENDAR_DATE ( 2021, 8, 11 ) ;
#256 = FACE_OUTER_BOUND ( 'NONE', #239, .T. ) ;
#257 = PERSON_AND_ORGANIZATION ( #281, #293 ) ;
#258 = FACE_BOUND ( 'NONE', #296, .T. ) ;
#259 = AXIS2_PLACEMENT_3D ( 'NONE', #73, #194, #279 ) ;
#260 = DATE_AND_TIME ( #262, #297 ) ;
#261 = MANIFOLD_SOLID_BREP ( 'Corps-Déplacer/Copier1[2]', #82 ) ;
#262 = CALENDAR_DATE ( 2021, 8, 11 ) ;
#263 = CC_DESIGN_APPROVAL ( #207, ( #274 ) ) ;
#264 = COORDINATED_UNIVERSAL_TIME_OFFSET ( 1, 0, .AHEAD. ) ;
#265 = ORIENTED_EDGE ( 'NONE', *, *, #280, .T. ) ;
#266 = CC_DESIGN_APPROVAL ( #13, ( #60 ) ) ;
#267 = DIRECTION ( 'NONE',  ( 3.491481338843133355E-15, -1.198223107250220118E-16, 1.000000000000000000 ) ) ;
#268 = CC_DESIGN_PERSON_AND_ORGANIZATION_ASSIGNMENT ( #237, #138, ( #60 ) ) ;
#269 = CARTESIAN_POINT ( 'NONE',  ( 1.222018468595096801E-13, 1.199807826129480202E-32, 35.00000000000000000 ) ) ;
#270 = CC_DESIGN_APPROVAL ( #159, ( #99 ) ) ;
#271 = DIRECTION ( 'NONE',  ( 0.0000000000000000000, -1.000000000000000000, 0.0000000000000000000 ) ) ;
#272 = TOROIDAL_SURFACE ( 'NONE', #259, 1.750000000000000888, 1.000000000000000444 ) ;
#273 = CARTESIAN_POINT ( 'NONE',  ( -1.673429447493911245E-31, 5.742954458993490413E-33, -4.792892429000880348E-17 ) ) ;
#274 = PRODUCT_DEFINITION ( 'UNKNOWN', '', #60, #176 ) ;
#275 = CARTESIAN_POINT ( 'NONE',  ( 1.222018468595096801E-13, -4.286263797015737285E-15, 35.00000000000000000 ) ) ;
#276 = AXIS2_PLACEMENT_3D ( 'NONE', #64, #107, #132 ) ;
#277 = CARTESIAN_POINT ( 'NONE',  ( 5.237222008264699244E-15, -1.626303258728260102E-16, 1.499999999999999778 ) ) ;
#278 = VERTEX_POINT ( 'NONE', #162 ) ;
#279 = DIRECTION ( 'NONE',  ( -4.183573618734778004E-31, -1.000000000000000000, -1.198223107250220118E-16 ) ) ;
#280 = EDGE_CURVE ( 'NONE', #278, #278, #197, .T. ) ;
#281 = PERSON ( 'UNSPECIFIED', 'UNSPECIFIED', 'UNSPECIFIED', ('UNSPECIFIED'), ('UNSPECIFIED'), ('UNSPECIFIED') ) ;
#282 = DATE_AND_TIME ( #56, #96 ) ;
#283 = CIRCLE ( 'NONE', #65, 2.000000000000000000 ) ;
#284 = ORIENTED_EDGE ( 'NONE', *, *, #175, .F. ) ;
#285 = DIRECTION ( 'NONE',  ( 0.0000000000000000000, -1.000000000000000000, 0.0000000000000000000 ) ) ;
#286 = MECHANICAL_CONTEXT ( 'NONE', #170, 'mechanical' ) ;
#287 = EDGE_CURVE ( 'NONE', #91, #91, #187, .T. ) ;
#288 = AXIS2_PLACEMENT_3D ( 'NONE', #227, #154, #133 ) ;
#289 = EDGE_CURVE ( 'NONE', #63, #63, #117, .T. ) ;
#290 = DIRECTION ( 'NONE',  ( -4.238897148741568904E-31, -1.000000000000000000, -1.198223107250220118E-16 ) ) ;
#291 = DIRECTION ( 'NONE',  ( -3.491481338843133355E-15, 1.224646799147353454E-16, -1.000000000000000000 ) ) ;
#292 = CC_DESIGN_PERSON_AND_ORGANIZATION_ASSIGNMENT ( #257, #29, ( #99 ) ) ;
#293 = ORGANIZATION ( 'UNSPECIFIED', 'UNSPECIFIED', '' ) ;
#294 = DIRECTION ( 'NONE',  ( 0.0000000000000000000, 1.000000000000000000, 0.0000000000000000000 ) ) ;
#295 = FACE_OUTER_BOUND ( 'NONE', #4, .T. ) ;
#296 = EDGE_LOOP ( 'NONE', ( #7 ) ) ;
#297 = LOCAL_TIME ( 15, 12, 41.00000000000000000, #264 ) ;
#298 = CARTESIAN_POINT ( 'NONE',  ( 5.237222008264699244E-15, -0.4000000000000005218, 1.499999999999999778 ) ) ;
#299 = EDGE_CURVE ( 'NONE', #250, #250, #225, .T. ) ;
#300 = ADVANCED_FACE ( 'NONE', ( #201, #135 ), #16, .T. ) ;
#301 = DIRECTION ( 'NONE',  ( 3.491481338843133355E-15, -1.198223107250220118E-16, 1.000000000000000000 ) ) ;
#302 = DIRECTION ( 'NONE',  ( 3.491481338843133355E-15, -1.198223107250220118E-16, 1.000000000000000000 ) ) ;
#303 = APPROVAL_PERSON_ORGANIZATION ( #196, #13, #6 ) ;
ENDSEC;
END-ISO-10303-21;
