ISO-10303-21;
HEADER;
FILE_DESCRIPTION (( 'STEP AP203' ),
    '1' );
FILE_NAME ('987595.step',
    '2021-11-08T14:12:40',
    ( '' ),
    ( '' ),
    'SwSTEP 2.0',
    'SolidWorks 2019',
    '' );
FILE_SCHEMA (( 'CONFIG_CONTROL_DESIGN' ));
ENDSEC;

DATA;
#1 =( LENGTH_UNIT ( ) NAMED_UNIT ( * ) SI_UNIT ( .MILLI., .METRE. ) );
#2 = CC_DESIGN_APPROVAL ( #72, ( #57 ) ) ;
#3 = AXIS2_PLACEMENT_3D ( 'NONE', #28, #52, #220 ) ;
#4 = FACE_BOUND ( 'NONE', #210, .T. ) ;
#5 = DIRECTION ( 'NONE',  ( 3.491481338843133355E-15, -1.198223107250220118E-16, 1.000000000000000000 ) ) ;
#6 = DIRECTION ( 'NONE',  ( -4.275831445896959482E-31, -1.000000000000000000, -1.224646799147353454E-16 ) ) ;
#7 = CC_DESIGN_PERSON_AND_ORGANIZATION_ASSIGNMENT ( #153, #13, ( #44 ) ) ;
#8 = VERTEX_POINT ( 'NONE', #99 ) ;
#9 = AXIS2_PLACEMENT_3D ( 'NONE', #121, #269, #97 ) ;
#10 = DIRECTION ( 'NONE',  ( 1.000000000000000000, 0.0000000000000000000, 0.0000000000000000000 ) ) ;
#11 = MANIFOLD_SOLID_BREP ( 'Corps-Déplacer/Copier1[2]', #33 ) ;
#12 = CALENDAR_DATE ( 2021, 8, 11 ) ;
#13 = PERSON_AND_ORGANIZATION_ROLE ( 'design_owner' ) ;
#14 = ORIENTED_EDGE ( 'NONE', *, *, #219, .T. ) ;
#15 = CC_DESIGN_PERSON_AND_ORGANIZATION_ASSIGNMENT ( #294, #155, ( #184 ) ) ;
#16 = EDGE_LOOP ( 'NONE', ( #227 ) ) ;
#17 = ORIENTED_EDGE ( 'NONE', *, *, #131, .F. ) ;
#18 = AXIS2_PLACEMENT_3D ( 'NONE', #71, #144, #163 ) ;
#19 = DIRECTION ( 'NONE',  ( -4.183573618734778879E-31, -1.000000000000000000, -1.198223107250220364E-16 ) ) ;
#20 = VERTEX_POINT ( 'NONE', #77 ) ;
#21 = APPROVAL ( #276, 'UNSPECIFIED' ) ;
#22 = DIRECTION ( 'NONE',  ( 3.491481338843133355E-15, -1.198223107250220118E-16, 1.000000000000000000 ) ) ;
#23 = DIRECTION ( 'NONE',  ( 0.0000000000000000000, -1.000000000000000000, 0.0000000000000000000 ) ) ;
#24 = UNCERTAINTY_MEASURE_WITH_UNIT (LENGTH_MEASURE( 1.000000000000000082E-05 ), #1, 'distance_accuracy_value', 'NONE');
#25 = DIRECTION ( 'NONE',  ( 3.491481338843133355E-15, -1.198223107250220118E-16, 1.000000000000000000 ) ) ;
#26 = VERTEX_POINT ( 'NONE', #193 ) ;
#27 = ADVANCED_FACE ( 'NONE', ( #88, #159 ), #124, .T. ) ;
#28 = CARTESIAN_POINT ( 'NONE',  ( 1.606081415867841343E-14, -5.511826293351012246E-16, 4.599999999999999645 ) ) ;
#29 = APPROVAL_STATUS ( 'not_yet_approved' ) ;
#30 = TOROIDAL_SURFACE ( 'NONE', #251, 1.350000000000000311, 1.000000000000000000 ) ;
#31 = APPROVAL_STATUS ( 'not_yet_approved' ) ;
#32 = COORDINATED_UNIVERSAL_TIME_OFFSET ( 1, 0, .AHEAD. ) ;
#33 = CLOSED_SHELL ( 'NONE', ( #158, #48, #91 ) ) ;
#34 = PERSON ( 'UNSPECIFIED', 'UNSPECIFIED', 'UNSPECIFIED', ('UNSPECIFIED'), ('UNSPECIFIED'), ('UNSPECIFIED') ) ;
#35 = PERSON_AND_ORGANIZATION_ROLE ( 'classification_officer' ) ;
#36 = LOCAL_TIME ( 15, 12, 40.00000000000000000, #32 ) ;
#37 = CARTESIAN_POINT ( 'NONE',  ( 0.0000000000000000000, 0.0000000000000000000, 0.0000000000000000000 ) ) ;
#38 = ORIENTED_EDGE ( 'NONE', *, *, #275, .T. ) ;
#39 = CC_DESIGN_DATE_AND_TIME_ASSIGNMENT ( #180, #203, ( #184 ) ) ;
#40 = EDGE_LOOP ( 'NONE', ( #300 ) ) ;
#41 = ORIENTED_EDGE ( 'NONE', *, *, #49, .F. ) ;
#42 = DIRECTION ( 'NONE',  ( 3.491481338843133355E-15, -1.198223107250220118E-16, 1.000000000000000000 ) ) ;
#43 = DIRECTION ( 'NONE',  ( 3.491481338843133355E-15, -1.198223107250220118E-16, 1.000000000000000000 ) ) ;
#44 = PRODUCT ( '987595', '987595', '', ( #272 ) ) ;
#45 = DIRECTION ( 'NONE',  ( -4.240074245124692022E-31, -1.000000000000000000, -1.198223107250220118E-16 ) ) ;
#46 = FACE_OUTER_BOUND ( 'NONE', #231, .T. ) ;
#47 =( GEOMETRIC_REPRESENTATION_CONTEXT ( 3 ) GLOBAL_UNCERTAINTY_ASSIGNED_CONTEXT ( ( #24 ) ) GLOBAL_UNIT_ASSIGNED_CONTEXT ( ( #1, #181, #222 ) ) REPRESENTATION_CONTEXT ( 'NONE', 'WORKASPACE' ) );
#48 = ADVANCED_FACE ( 'NONE', ( #188, #160 ), #256, .T. ) ;
#49 = EDGE_CURVE ( 'NONE', #50, #50, #75, .T. ) ;
#50 = VERTEX_POINT ( 'NONE', #96 ) ;
#51 = DIRECTION ( 'NONE',  ( -4.275831445896959482E-31, -1.000000000000000000, -1.224646799147353454E-16 ) ) ;
#52 = DIRECTION ( 'NONE',  ( 3.491481338843133355E-15, -1.198223107250220118E-16, 1.000000000000000000 ) ) ;
#53 = CARTESIAN_POINT ( 'NONE',  ( -1.464250766557172476E-31, 5.025085151619303769E-33, -4.193780875375770535E-17 ) ) ;
#54 = CARTESIAN_POINT ( 'NONE',  ( 1.606081415867841343E-14, -6.505213034913026604E-16, 4.599999999999999645 ) ) ;
#55 = CC_DESIGN_PERSON_AND_ORGANIZATION_ASSIGNMENT ( #291, #81, ( #57 ) ) ;
#56 = FACE_OUTER_BOUND ( 'NONE', #271, .T. ) ;
#57 = PRODUCT_DEFINITION_FORMATION_WITH_SPECIFIED_SOURCE ( 'ANY', '', #44, .NOT_KNOWN. ) ;
#58 = DIRECTION ( 'NONE',  ( 3.491481338843133355E-15, -1.198223107250220118E-16, 1.000000000000000000 ) ) ;
#59 = APPLICATION_PROTOCOL_DEFINITION ( 'international standard', 'config_control_design', 1994, #259 ) ;
#60 = EDGE_LOOP ( 'NONE', ( #89 ) ) ;
#61 = CALENDAR_DATE ( 2021, 8, 11 ) ;
#62 = CIRCLE ( 'NONE', #234, 0.3500000000000001998 ) ;
#63 = CALENDAR_DATE ( 2021, 8, 11 ) ;
#64 = COORDINATED_UNIVERSAL_TIME_OFFSET ( 1, 0, .AHEAD. ) ;
#65 = ORIENTED_EDGE ( 'NONE', *, *, #283, .F. ) ;
#66 = ADVANCED_FACE ( 'NONE', ( #113, #142 ), #284, .T. ) ;
#67 = CIRCLE ( 'NONE', #83, 0.3499999999999999778 ) ;
#68 = EDGE_LOOP ( 'NONE', ( #65 ) ) ;
#69 = ORIENTED_EDGE ( 'NONE', *, *, #283, .T. ) ;
#70 = EDGE_LOOP ( 'NONE', ( #296 ) ) ;
#71 = CARTESIAN_POINT ( 'NONE',  ( 6.573354071051850829E-15, -2.255874792297007883E-16, 1.882683432365090059 ) ) ;
#72 = APPROVAL ( #29, 'UNSPECIFIED' ) ;
#73 = CARTESIAN_POINT ( 'NONE',  ( 0.0000000000000000000, 0.0000000000000000000, 0.0000000000000000000 ) ) ;
#74 = AXIS2_PLACEMENT_3D ( 'NONE', #148, #58, #221 ) ;
#75 = CIRCLE ( 'NONE', #195, 2.000000000000000000 ) ;
#76 = FACE_BOUND ( 'NONE', #277, .T. ) ;
#77 = CARTESIAN_POINT ( 'NONE',  ( -2.928501533114344515E-31, -0.3499999999999999778, -8.387561750751541071E-17 ) ) ;
#78 = DIRECTION ( 'NONE',  ( 0.0000000000000000000, 1.000000000000000000, 0.0000000000000000000 ) ) ;
#79 = CARTESIAN_POINT ( 'NONE',  ( 5.237222008264699244E-15, -1.626303258728260102E-16, 1.499999999999999778 ) ) ;
#80 = EDGE_CURVE ( 'NONE', #198, #198, #236, .T. ) ;
#81 = PERSON_AND_ORGANIZATION_ROLE ( 'design_supplier' ) ;
#82 = APPROVAL_PERSON_ORGANIZATION ( #174, #289, #152 ) ;
#83 = AXIS2_PLACEMENT_3D ( 'NONE', #53, #25, #171 ) ;
#84 = ADVANCED_FACE ( 'NONE', ( #282 ), #238, .F. ) ;
#85 = EDGE_LOOP ( 'NONE', ( #133 ) ) ;
#86 = ORIENTED_EDGE ( 'NONE', *, *, #80, .T. ) ;
#87 = AXIS2_PLACEMENT_3D ( 'NONE', #37, #226, #10 ) ;
#88 = FACE_BOUND ( 'NONE', #253, .T. ) ;
#89 = ORIENTED_EDGE ( 'NONE', *, *, #219, .F. ) ;
#90 = DIRECTION ( 'NONE',  ( 4.275831445896958607E-31, 1.000000000000000000, 1.224646799147353700E-16 ) ) ;
#91 = ADVANCED_FACE ( 'NONE', ( #56 ), #140, .F. ) ;
#92 = DIRECTION ( 'NONE',  ( 3.491481338843133355E-15, -1.198223107250220118E-16, 1.000000000000000000 ) ) ;
#93 = CARTESIAN_POINT ( 'NONE',  ( 5.237222008264699244E-15, -1.797334660875329930E-16, 1.499999999999999778 ) ) ;
#94 = AXIS2_PLACEMENT_3D ( 'NONE', #213, #266, #51 ) ;
#95 = AXIS2_PLACEMENT_3D ( 'NONE', #73, #215, #90 ) ;
#96 = CARTESIAN_POINT ( 'NONE',  ( 1.208052543239724267E-13, 1.999999999999995781, 34.60000000000000853 ) ) ;
#97 = DIRECTION ( 'NONE',  ( 0.0000000000000000000, -1.000000000000000000, 0.0000000000000000000 ) ) ;
#98 = FACE_OUTER_BOUND ( 'NONE', #255, .T. ) ;
#99 = CARTESIAN_POINT ( 'NONE',  ( 5.237222008264699244E-15, -0.3500000000000003664, 1.499999999999999778 ) ) ;
#100 = AXIS2_PLACEMENT_3D ( 'NONE', #167, #92, #270 ) ;
#101 = COORDINATED_UNIVERSAL_TIME_OFFSET ( 1, 0, .AHEAD. ) ;
#102 = ADVANCED_FACE ( 'NONE', ( #175 ), #225, .F. ) ;
#103 = APPROVAL_ROLE ( '' ) ;
#104 = DATE_AND_TIME ( #177, #216 ) ;
#105 = ORIENTED_EDGE ( 'NONE', *, *, #114, .F. ) ;
#106 = CC_DESIGN_PERSON_AND_ORGANIZATION_ASSIGNMENT ( #130, #208, ( #57 ) ) ;
#107 = APPROVAL_ROLE ( '' ) ;
#108 = ORIENTED_EDGE ( 'NONE', *, *, #301, .F. ) ;
#109 = EDGE_LOOP ( 'NONE', ( #17 ) ) ;
#110 = AXIS2_PLACEMENT_3D ( 'NONE', #245, #143, #122 ) ;
#111 = DIRECTION ( 'NONE',  ( 3.491481338843133355E-15, -1.224646799147353454E-16, 1.000000000000000000 ) ) ;
#112 = EDGE_LOOP ( 'NONE', ( #136 ) ) ;
#113 = FACE_OUTER_BOUND ( 'NONE', #85, .T. ) ;
#114 = EDGE_CURVE ( 'NONE', #20, #20, #67, .T. ) ;
#115 = CARTESIAN_POINT ( 'NONE',  ( 1.222018468595096801E-13, -4.286263797015737285E-15, 35.00000000000000000 ) ) ;
#116 = CARTESIAN_POINT ( 'NONE',  ( 0.0000000000000000000, 0.0000000000000000000, 0.0000000000000000000 ) ) ;
#117 = CARTESIAN_POINT ( 'NONE',  ( 9.303393467438942621E-15, -0.7500000000000006661, 2.664597792328893267 ) ) ;
#118 = FACE_OUTER_BOUND ( 'NONE', #60, .T. ) ;
#119 = APPROVAL_PERSON_ORGANIZATION ( #273, #21, #107 ) ;
#120 = TOROIDAL_SURFACE ( 'NONE', #192, 1.750000000000000888, 1.000000000000000444 ) ;
#121 = CARTESIAN_POINT ( 'NONE',  ( 5.237222008264699244E-15, -1.797334660875329930E-16, 1.499999999999999778 ) ) ;
#122 = DIRECTION ( 'NONE',  ( 0.0000000000000000000, 1.000000000000000000, 0.0000000000000000000 ) ) ;
#123 = CARTESIAN_POINT ( 'NONE',  ( 1.780655482809998327E-14, -0.8839745962155630687, 5.100000000000001421 ) ) ;
#124 = CONICAL_SURFACE ( 'NONE', #211, 0.7500000000000003331, 0.3926990816987253607 ) ;
#125 = EDGE_CURVE ( 'NONE', #214, #214, #264, .T. ) ;
#126 = DATE_TIME_ROLE ( 'classification_date' ) ;
#127 = CIRCLE ( 'NONE', #18, 0.4261204674887137389 ) ;
#128 = APPROVAL_DATE_TIME ( #290, #72 ) ;
#129 = AXIS2_PLACEMENT_3D ( 'NONE', #135, #42, #235 ) ;
#130 = PERSON_AND_ORGANIZATION ( #34, #257 ) ;
#131 = EDGE_CURVE ( 'NONE', #303, #303, #127, .T. ) ;
#132 = DATE_AND_TIME ( #224, #297 ) ;
#133 = ORIENTED_EDGE ( 'NONE', *, *, #49, .T. ) ;
#134 = CC_DESIGN_APPROVAL ( #21, ( #184 ) ) ;
#135 = CARTESIAN_POINT ( 'NONE',  ( 0.0000000000000000000, 0.0000000000000000000, 0.0000000000000000000 ) ) ;
#136 = ORIENTED_EDGE ( 'NONE', *, *, #228, .F. ) ;
#137 = DIRECTION ( 'NONE',  ( 3.491481338843133355E-15, -1.198223107250220118E-16, 1.000000000000000000 ) ) ;
#138 = AXIS2_PLACEMENT_3D ( 'NONE', #189, #43, #237 ) ;
#139 = ADVANCED_FACE ( 'NONE', ( #263, #46 ), #241, .T. ) ;
#140 = PLANE ( 'NONE',  #94 ) ;
#141 = SECURITY_CLASSIFICATION ( '', '', #295 ) ;
#142 = FACE_OUTER_BOUND ( 'NONE', #183, .T. ) ;
#143 = DIRECTION ( 'NONE',  ( -3.491481338843133355E-15, 1.224646799147353454E-16, -1.000000000000000000 ) ) ;
#144 = DIRECTION ( 'NONE',  ( 3.491481338843133355E-15, -1.198223107250220118E-16, 1.000000000000000000 ) ) ;
#145 = PLANE ( 'NONE',  #166 ) ;
#146 = VERTEX_POINT ( 'NONE', #117 ) ;
#147 = DIRECTION ( 'NONE',  ( 3.491481338843133355E-15, -1.198223107250220118E-16, 1.000000000000000000 ) ) ;
#148 = CARTESIAN_POINT ( 'NONE',  ( 9.303393467438942621E-15, -3.192782646296403068E-16, 2.664597792328893267 ) ) ;
#149 = ADVANCED_BREP_SHAPE_REPRESENTATION ( '987595', ( #244, #11, #87 ), #47 ) ;
#150 = DIRECTION ( 'NONE',  ( 3.491481338843133355E-15, -1.224646799147353454E-16, 1.000000000000000000 ) ) ;
#151 = CC_DESIGN_PERSON_AND_ORGANIZATION_ASSIGNMENT ( #156, #35, ( #141 ) ) ;
#152 = APPROVAL_ROLE ( '' ) ;
#153 = PERSON_AND_ORGANIZATION ( #34, #257 ) ;
#154 = AXIS2_PLACEMENT_3D ( 'NONE', #178, #169, #268 ) ;
#155 = PERSON_AND_ORGANIZATION_ROLE ( 'creator' ) ;
#156 = PERSON_AND_ORGANIZATION ( #34, #257 ) ;
#157 = ORIENTED_EDGE ( 'NONE', *, *, #125, .T. ) ;
#158 = ADVANCED_FACE ( 'NONE', ( #165 ), #145, .T. ) ;
#159 = FACE_OUTER_BOUND ( 'NONE', #112, .T. ) ;
#160 = FACE_OUTER_BOUND ( 'NONE', #16, .T. ) ;
#161 = AXIS2_PLACEMENT_3D ( 'NONE', #115, #286, #78 ) ;
#162 = ADVANCED_FACE ( 'NONE', ( #262, #98 ), #120, .F. ) ;
#163 = DIRECTION ( 'NONE',  ( 0.0000000000000000000, -1.000000000000000000, 0.0000000000000000000 ) ) ;
#164 = CARTESIAN_POINT ( 'NONE',  ( 1.208052543239724267E-13, -4.237277925049843857E-15, 34.60000000000000853 ) ) ;
#165 = FACE_OUTER_BOUND ( 'NONE', #280, .T. ) ;
#166 = AXIS2_PLACEMENT_3D ( 'NONE', #79, #150, #6 ) ;
#167 = CARTESIAN_POINT ( 'NONE',  ( 2.455563260450337867E-14, -8.427118332991551518E-16, 7.033012701892211282 ) ) ;
#168 = CLOSED_SHELL ( 'NONE', ( #66, #197, #102, #260, #162, #139, #27, #173, #84 ) ) ;
#169 = DIRECTION ( 'NONE',  ( -3.491481338843133355E-15, 1.224646799147353454E-16, -1.000000000000000000 ) ) ;
#170 = CARTESIAN_POINT ( 'NONE',  ( 5.237222008264699244E-15, -0.3500000000000003664, 1.499999999999999778 ) ) ;
#171 = DIRECTION ( 'NONE',  ( -4.183573618734777128E-31, -1.000000000000000000, -1.198223107250220118E-16 ) ) ;
#172 = CARTESIAN_POINT ( 'NONE',  ( 5.237222008264697666E-15, -2.168404344971008868E-16, 1.499999999999999334 ) ) ;
#173 = ADVANCED_FACE ( 'NONE', ( #247, #285 ), #30, .F. ) ;
#174 = PERSON_AND_ORGANIZATION ( #34, #257 ) ;
#175 = FACE_OUTER_BOUND ( 'NONE', #68, .T. ) ;
#176 = PERSON_AND_ORGANIZATION ( #34, #257 ) ;
#177 = CALENDAR_DATE ( 2021, 8, 11 ) ;
#178 = CARTESIAN_POINT ( 'NONE',  ( 1.222018468595096801E-13, 1.199807826129480202E-32, 35.00000000000000000 ) ) ;
#179 = AXIS2_PLACEMENT_3D ( 'NONE', #116, #5, #19 ) ;
#180 = DATE_AND_TIME ( #61, #36 ) ;
#181 =( NAMED_UNIT ( * ) PLANE_ANGLE_UNIT ( ) SI_UNIT ( $, .RADIAN. ) );
#182 = ORIENTED_EDGE ( 'NONE', *, *, #80, .F. ) ;
#183 = EDGE_LOOP ( 'NONE', ( #14 ) ) ;
#184 = PRODUCT_DEFINITION ( 'UNKNOWN', '', #57, #194 ) ;
#185 = CC_DESIGN_APPROVAL ( #289, ( #141 ) ) ;
#186 = CONICAL_SURFACE ( 'NONE', #100, 1.999999999999998668, 0.5235987755983001479 ) ;
#187 = CARTESIAN_POINT ( 'NONE',  ( 9.303393467438942621E-15, -3.192782646296403068E-16, 2.664597792328893267 ) ) ;
#188 = FACE_OUTER_BOUND ( 'NONE', #206, .T. ) ;
#189 = CARTESIAN_POINT ( 'NONE',  ( 1.780655482809998327E-14, -6.110937846976124030E-16, 5.100000000000001421 ) ) ;
#190 = AXIS2_PLACEMENT_3D ( 'NONE', #278, #111, #242 ) ;
#191 = CARTESIAN_POINT ( 'NONE',  ( 1.222018468595096801E-13, 1.599999999999995648, 35.00000000000000000 ) ) ;
#192 = AXIS2_PLACEMENT_3D ( 'NONE', #54, #147, #243 ) ;
#193 = CARTESIAN_POINT ( 'NONE',  ( 2.455563260450337867E-14, -1.999999999999999556, 7.033012701892211282 ) ) ;
#194 = DESIGN_CONTEXT ( 'detailed design', #259, 'design' ) ;
#195 = AXIS2_PLACEMENT_3D ( 'NONE', #164, #199, #261 ) ;
#196 = FACE_OUTER_BOUND ( 'NONE', #230, .T. ) ;
#197 = ADVANCED_FACE ( 'NONE', ( #196, #4 ), #299, .T. ) ;
#198 = VERTEX_POINT ( 'NONE', #123 ) ;
#199 = DIRECTION ( 'NONE',  ( -3.491481338843133355E-15, 1.224646799147353454E-16, -1.000000000000000000 ) ) ;
#200 = VERTEX_POINT ( 'NONE', #288 ) ;
#201 = CC_DESIGN_SECURITY_CLASSIFICATION ( #141, ( #57 ) ) ;
#202 = COORDINATED_UNIVERSAL_TIME_OFFSET ( 1, 0, .AHEAD. ) ;
#203 = DATE_TIME_ROLE ( 'creation_date' ) ;
#204 = APPROVAL_DATE_TIME ( #104, #289 ) ;
#205 = COORDINATED_UNIVERSAL_TIME_OFFSET ( 1, 0, .AHEAD. ) ;
#206 = EDGE_LOOP ( 'NONE', ( #298 ) ) ;
#207 = PRODUCT_RELATED_PRODUCT_CATEGORY ( 'detail', '', ( #44 ) ) ;
#208 = PERSON_AND_ORGANIZATION_ROLE ( 'creator' ) ;
#209 = ORIENTED_EDGE ( 'NONE', *, *, #275, .F. ) ;
#210 = EDGE_LOOP ( 'NONE', ( #69 ) ) ;
#211 = AXIS2_PLACEMENT_3D ( 'NONE', #187, #137, #279 ) ;
#212 = LOCAL_TIME ( 15, 12, 40.00000000000000000, #205 ) ;
#213 = CARTESIAN_POINT ( 'NONE',  ( -3.206893176761000815E-31, 1.124826709063586741E-32, -9.184907108292241390E-17 ) ) ;
#214 = VERTEX_POINT ( 'NONE', #170 ) ;
#215 = DIRECTION ( 'NONE',  ( -3.491481338843133355E-15, 1.224646799147353454E-16, -1.000000000000000000 ) ) ;
#216 = LOCAL_TIME ( 15, 12, 40.00000000000000000, #202 ) ;
#217 = CIRCLE ( 'NONE', #258, 1.999999999999998668 ) ;
#218 = DIRECTION ( 'NONE',  ( 3.491481338843133355E-15, -1.198223107250220118E-16, 1.000000000000000000 ) ) ;
#219 = EDGE_CURVE ( 'NONE', #26, #26, #217, .T. ) ;
#220 = DIRECTION ( 'NONE',  ( 0.0000000000000000000, -1.000000000000000000, 0.0000000000000000000 ) ) ;
#221 = DIRECTION ( 'NONE',  ( 0.0000000000000000000, -1.000000000000000000, 0.0000000000000000000 ) ) ;
#222 =( NAMED_UNIT ( * ) SI_UNIT ( $, .STERADIAN. ) SOLID_ANGLE_UNIT ( ) );
#223 = CC_DESIGN_DATE_AND_TIME_ASSIGNMENT ( #132, #126, ( #141 ) ) ;
#224 = CALENDAR_DATE ( 2021, 8, 11 ) ;
#225 = PLANE ( 'NONE',  #154 ) ;
#226 = DIRECTION ( 'NONE',  ( 0.0000000000000000000, 0.0000000000000000000, 1.000000000000000000 ) ) ;
#227 = ORIENTED_EDGE ( 'NONE', *, *, #125, .F. ) ;
#228 = EDGE_CURVE ( 'NONE', #146, #146, #239, .T. ) ;
#229 = APPLICATION_PROTOCOL_DEFINITION ( 'international standard', 'config_control_design', 1994, #252 ) ;
#230 = EDGE_LOOP ( 'NONE', ( #41 ) ) ;
#231 = EDGE_LOOP ( 'NONE', ( #108 ) ) ;
#232 = EDGE_LOOP ( 'NONE', ( #38 ) ) ;
#233 = LOCAL_TIME ( 15, 12, 40.00000000000000000, #64 ) ;
#234 = AXIS2_PLACEMENT_3D ( 'NONE', #93, #218, #267 ) ;
#235 = DIRECTION ( 'NONE',  ( -4.183573618734778879E-31, -1.000000000000000000, -1.198223107250220118E-16 ) ) ;
#236 = CIRCLE ( 'NONE', #138, 0.8839745962155624026 ) ;
#237 = DIRECTION ( 'NONE',  ( 0.0000000000000000000, -1.000000000000000000, 0.0000000000000000000 ) ) ;
#238 = PLANE ( 'NONE',  #190 ) ;
#239 = CIRCLE ( 'NONE', #74, 0.7500000000000003331 ) ;
#240 = CARTESIAN_POINT ( 'NONE',  ( 2.455563260450337867E-14, -8.427118332991551518E-16, 7.033012701892211282 ) ) ;
#241 = CYLINDRICAL_SURFACE ( 'NONE', #179, 0.7500000000000003331 ) ;
#242 = DIRECTION ( 'NONE',  ( -4.275831445896959482E-31, -1.000000000000000000, -1.224646799147353454E-16 ) ) ;
#243 = DIRECTION ( 'NONE',  ( -4.183573618734778004E-31, -1.000000000000000000, -1.198223107250220118E-16 ) ) ;
#244 = MANIFOLD_SOLID_BREP ( 'Corps-Déplacer/Copier1[1]', #168 ) ;
#245 = CARTESIAN_POINT ( 'NONE',  ( 1.222018468595096801E-13, -4.286263797015737285E-15, 35.00000000000000000 ) ) ;
#246 = CARTESIAN_POINT ( 'NONE',  ( 6.573354071051850829E-15, -0.4261204674887139610, 1.882683432365090059 ) ) ;
#247 = FACE_OUTER_BOUND ( 'NONE', #232, .T. ) ;
#248 = DATE_AND_TIME ( #63, #233 ) ;
#249 = ORIENTED_EDGE ( 'NONE', *, *, #131, .T. ) ;
#250 = APPROVAL_DATE_TIME ( #248, #21 ) ;
#251 = AXIS2_PLACEMENT_3D ( 'NONE', #172, #22, #45 ) ;
#252 = APPLICATION_CONTEXT ( 'configuration controlled 3d designs of mechanical parts and assemblies' ) ;
#253 = EDGE_LOOP ( 'NONE', ( #249 ) ) ;
#254 = EDGE_LOOP ( 'NONE', ( #209 ) ) ;
#255 = EDGE_LOOP ( 'NONE', ( #182 ) ) ;
#256 = CYLINDRICAL_SURFACE ( 'NONE', #129, 0.3500000000000000888 ) ;
#257 = ORGANIZATION ( 'UNSPECIFIED', 'UNSPECIFIED', '' ) ;
#258 = AXIS2_PLACEMENT_3D ( 'NONE', #240, #265, #23 ) ;
#259 = APPLICATION_CONTEXT ( 'configuration controlled 3d designs of mechanical parts and assemblies' ) ;
#260 = ADVANCED_FACE ( 'NONE', ( #76, #118 ), #186, .T. ) ;
#261 = DIRECTION ( 'NONE',  ( 0.0000000000000000000, 1.000000000000000000, 0.0000000000000000000 ) ) ;
#262 = FACE_OUTER_BOUND ( 'NONE', #40, .T. ) ;
#263 = FACE_OUTER_BOUND ( 'NONE', #70, .T. ) ;
#264 = CIRCLE ( 'NONE', #9, 0.3500000000000001998 ) ;
#265 = DIRECTION ( 'NONE',  ( 3.491481338843133355E-15, -1.198223107250220118E-16, 1.000000000000000000 ) ) ;
#266 = DIRECTION ( 'NONE',  ( 3.491481338843133355E-15, -1.224646799147353454E-16, 1.000000000000000000 ) ) ;
#267 = DIRECTION ( 'NONE',  ( 0.0000000000000000000, -1.000000000000000000, 0.0000000000000000000 ) ) ;
#268 = DIRECTION ( 'NONE',  ( 4.275831445896959482E-31, 1.000000000000000000, 1.224646799147353454E-16 ) ) ;
#269 = DIRECTION ( 'NONE',  ( 3.491481338843133355E-15, -1.198223107250220118E-16, 1.000000000000000000 ) ) ;
#270 = DIRECTION ( 'NONE',  ( 0.0000000000000000000, -1.000000000000000000, 0.0000000000000000000 ) ) ;
#271 = EDGE_LOOP ( 'NONE', ( #105 ) ) ;
#272 = MECHANICAL_CONTEXT ( 'NONE', #252, 'mechanical' ) ;
#273 = PERSON_AND_ORGANIZATION ( #34, #257 ) ;
#274 = CIRCLE ( 'NONE', #3, 0.7500000000000003331 ) ;
#275 = EDGE_CURVE ( 'NONE', #8, #8, #62, .T. ) ;
#276 = APPROVAL_STATUS ( 'not_yet_approved' ) ;
#277 = EDGE_LOOP ( 'NONE', ( #86 ) ) ;
#278 = CARTESIAN_POINT ( 'NONE',  ( 5.237222008264699244E-15, -1.626303258728260102E-16, 1.499999999999999778 ) ) ;
#279 = DIRECTION ( 'NONE',  ( 0.0000000000000000000, -1.000000000000000000, 0.0000000000000000000 ) ) ;
#280 = EDGE_LOOP ( 'NONE', ( #157 ) ) ;
#281 = APPROVAL_PERSON_ORGANIZATION ( #176, #72, #103 ) ;
#282 = FACE_OUTER_BOUND ( 'NONE', #254, .T. ) ;
#283 = EDGE_CURVE ( 'NONE', #287, #287, #293, .T. ) ;
#284 = CYLINDRICAL_SURFACE ( 'NONE', #95, 1.999999999999997780 ) ;
#285 = FACE_OUTER_BOUND ( 'NONE', #109, .T. ) ;
#286 = DIRECTION ( 'NONE',  ( -3.491481338843133355E-15, 1.224646799147353454E-16, -1.000000000000000000 ) ) ;
#287 = VERTEX_POINT ( 'NONE', #191 ) ;
#288 = CARTESIAN_POINT ( 'NONE',  ( 1.606081415867841343E-14, -0.7500000000000008882, 4.599999999999999645 ) ) ;
#289 = APPROVAL ( #31, 'UNSPECIFIED' ) ;
#290 = DATE_AND_TIME ( #12, #212 ) ;
#291 = PERSON_AND_ORGANIZATION ( #34, #257 ) ;
#292 = SHAPE_DEFINITION_REPRESENTATION ( #302, #149 ) ;
#293 = CIRCLE ( 'NONE', #161, 1.600000000000000089 ) ;
#294 = PERSON_AND_ORGANIZATION ( #34, #257 ) ;
#295 = SECURITY_CLASSIFICATION_LEVEL ( 'unclassified' ) ;
#296 = ORIENTED_EDGE ( 'NONE', *, *, #228, .T. ) ;
#297 = LOCAL_TIME ( 15, 12, 40.00000000000000000, #101 ) ;
#298 = ORIENTED_EDGE ( 'NONE', *, *, #114, .T. ) ;
#299 = CONICAL_SURFACE ( 'NONE', #110, 1.600000000000000089, 0.7853981633974512766 ) ;
#300 = ORIENTED_EDGE ( 'NONE', *, *, #301, .T. ) ;
#301 = EDGE_CURVE ( 'NONE', #200, #200, #274, .T. ) ;
#302 = PRODUCT_DEFINITION_SHAPE ( 'NONE', 'NONE',  #184 ) ;
#303 = VERTEX_POINT ( 'NONE', #246 ) ;
ENDSEC;
END-ISO-10303-21;
