ISO-10303-21;
HEADER;
FILE_DESCRIPTION (( 'STEP AP203' ),
    '1' );
FILE_NAME ('987594.step',
    '2021-11-08T14:12:40',
    ( '' ),
    ( '' ),
    'SwSTEP 2.0',
    'SolidWorks 2019',
    '' );
FILE_SCHEMA (( 'CONFIG_CONTROL_DESIGN' ));
ENDSEC;

DATA;
#1 = DIRECTION ( 'NONE',  ( 3.491481338843133355E-15, -1.198223107250220118E-16, 1.000000000000000000 ) ) ;
#2 = ORIENTED_EDGE ( 'NONE', *, *, #95, .T. ) ;
#3 = DIRECTION ( 'NONE',  ( 0.0000000000000000000, -1.000000000000000000, 0.0000000000000000000 ) ) ;
#4 = DIRECTION ( 'NONE',  ( 3.491481338843133355E-15, -1.198223107250220118E-16, 1.000000000000000000 ) ) ;
#5 = CARTESIAN_POINT ( 'NONE',  ( 1.606081415867841343E-14, -5.511826293351012246E-16, 4.599999999999999645 ) ) ;
#6 = CARTESIAN_POINT ( 'NONE',  ( 4.189777606611757660E-15, -0.3000000000000002665, 1.199999999999999512 ) ) ;
#7 =( GEOMETRIC_REPRESENTATION_CONTEXT ( 3 ) GLOBAL_UNCERTAINTY_ASSIGNED_CONTEXT ( ( #195 ) ) GLOBAL_UNIT_ASSIGNED_CONTEXT ( ( #52, #241, #51 ) ) REPRESENTATION_CONTEXT ( 'NONE', 'WORKASPACE' ) );
#8 = COORDINATED_UNIVERSAL_TIME_OFFSET ( 1, 0, .AHEAD. ) ;
#9 = PERSON_AND_ORGANIZATION ( #148, #301 ) ;
#10 = ORIENTED_EDGE ( 'NONE', *, *, #286, .T. ) ;
#11 = CONICAL_SURFACE ( 'NONE', #72, 1.600000000000000089, 0.7853981633974512766 ) ;
#12 = AXIS2_PLACEMENT_3D ( 'NONE', #138, #251, #296 ) ;
#13 = APPROVAL_STATUS ( 'not_yet_approved' ) ;
#14 = PERSON_AND_ORGANIZATION ( #148, #301 ) ;
#15 = DIRECTION ( 'NONE',  ( 3.491481338843133355E-15, -1.198223107250220118E-16, 1.000000000000000000 ) ) ;
#16 = EDGE_LOOP ( 'NONE', ( #295 ) ) ;
#17 = APPROVAL_DATE_TIME ( #269, #31 ) ;
#18 = EDGE_LOOP ( 'NONE', ( #109 ) ) ;
#19 = LOCAL_TIME ( 15, 12, 40.00000000000000000, #294 ) ;
#20 = DIRECTION ( 'NONE',  ( -4.183573618734778004E-31, -1.000000000000000000, -1.198223107250220118E-16 ) ) ;
#21 = FACE_OUTER_BOUND ( 'NONE', #249, .T. ) ;
#22 = TOROIDAL_SURFACE ( 'NONE', #272, 1.750000000000000888, 1.000000000000000444 ) ;
#23 = CARTESIAN_POINT ( 'NONE',  ( 8.677408145836386093E-15, -2.977954037934953415E-16, 2.485308470447548324 ) ) ;
#24 = CARTESIAN_POINT ( 'NONE',  ( 1.780655482809998327E-14, -6.110937846976124030E-16, 5.100000000000001421 ) ) ;
#25 = FACE_OUTER_BOUND ( 'NONE', #227, .T. ) ;
#26 = EDGE_CURVE ( 'NONE', #234, #234, #199, .T. ) ;
#27 = ORIENTED_EDGE ( 'NONE', *, *, #237, .T. ) ;
#28 = DIRECTION ( 'NONE',  ( 0.0000000000000000000, -1.000000000000000000, 0.0000000000000000000 ) ) ;
#29 = PLANE ( 'NONE',  #36 ) ;
#30 = APPLICATION_CONTEXT ( 'configuration controlled 3d designs of mechanical parts and assemblies' ) ;
#31 = APPROVAL ( #207, 'UNSPECIFIED' ) ;
#32 = VERTEX_POINT ( 'NONE', #220 ) ;
#33 = CARTESIAN_POINT ( 'NONE',  ( 1.606081415867841343E-14, -0.7500000000000008882, 4.599999999999999645 ) ) ;
#34 = DATE_AND_TIME ( #288, #85 ) ;
#35 = AXIS2_PLACEMENT_3D ( 'NONE', #5, #260, #69 ) ;
#36 = AXIS2_PLACEMENT_3D ( 'NONE', #126, #219, #197 ) ;
#37 = CARTESIAN_POINT ( 'NONE',  ( 4.189777606611757660E-15, -0.3000000000000002665, 1.199999999999999512 ) ) ;
#38 = ADVANCED_FACE ( 'NONE', ( #21, #278 ), #150, .F. ) ;
#39 = CARTESIAN_POINT ( 'NONE',  ( -1.255072085620433270E-31, 4.307215844245117125E-33, -3.594669321750660107E-17 ) ) ;
#40 = PERSON_AND_ORGANIZATION ( #148, #301 ) ;
#41 = CARTESIAN_POINT ( 'NONE',  ( 2.455563260450337867E-14, -8.427118332991551518E-16, 7.033012701892211282 ) ) ;
#42 = ORIENTED_EDGE ( 'NONE', *, *, #134, .F. ) ;
#43 = DIRECTION ( 'NONE',  ( 3.491481338843133355E-15, -1.198223107250220118E-16, 1.000000000000000000 ) ) ;
#44 = ADVANCED_FACE ( 'NONE', ( #63 ), #118, .F. ) ;
#45 = CARTESIAN_POINT ( 'NONE',  ( 1.208052543239724267E-13, 1.999999999999995781, 34.60000000000000853 ) ) ;
#46 = DIRECTION ( 'NONE',  ( 3.491481338843133355E-15, -1.198223107250220118E-16, 1.000000000000000000 ) ) ;
#47 = CIRCLE ( 'NONE', #101, 0.7500000000000003331 ) ;
#48 = FACE_OUTER_BOUND ( 'NONE', #125, .T. ) ;
#49 = CARTESIAN_POINT ( 'NONE',  ( 0.0000000000000000000, 0.0000000000000000000, 0.0000000000000000000 ) ) ;
#50 = ADVANCED_FACE ( 'NONE', ( #137 ), #90, .F. ) ;
#51 =( NAMED_UNIT ( * ) SI_UNIT ( $, .STERADIAN. ) SOLID_ANGLE_UNIT ( ) );
#52 =( LENGTH_UNIT ( ) NAMED_UNIT ( * ) SI_UNIT ( .MILLI., .METRE. ) );
#53 = CARTESIAN_POINT ( 'NONE',  ( 1.780655482809998327E-14, -0.8839745962155630687, 5.100000000000001421 ) ) ;
#54 = CARTESIAN_POINT ( 'NONE',  ( 1.222018468595096801E-13, 1.599999999999995648, 35.00000000000000000 ) ) ;
#55 = CIRCLE ( 'NONE', #119, 0.2999999999999999889 ) ;
#56 = AXIS2_PLACEMENT_3D ( 'NONE', #235, #1, #97 ) ;
#57 = APPROVAL_PERSON_ORGANIZATION ( #80, #164, #104 ) ;
#58 = DATE_TIME_ROLE ( 'classification_date' ) ;
#59 = ORIENTED_EDGE ( 'NONE', *, *, #178, .T. ) ;
#60 = DATE_AND_TIME ( #112, #19 ) ;
#61 = DIRECTION ( 'NONE',  ( 3.491481338843133355E-15, -1.224646799147353454E-16, 1.000000000000000000 ) ) ;
#62 = CARTESIAN_POINT ( 'NONE',  ( 1.222018468595096801E-13, 1.199807826129480202E-32, 35.00000000000000000 ) ) ;
#63 = FACE_OUTER_BOUND ( 'NONE', #256, .T. ) ;
#64 = ORIENTED_EDGE ( 'NONE', *, *, #182, .T. ) ;
#65 = ORIENTED_EDGE ( 'NONE', *, *, #116, .T. ) ;
#66 = ADVANCED_FACE ( 'NONE', ( #225, #213 ), #297, .T. ) ;
#67 = CARTESIAN_POINT ( 'NONE',  ( 8.677408145836386093E-15, -2.977954037934953415E-16, 2.485308470447548324 ) ) ;
#68 = LOCAL_TIME ( 15, 12, 40.00000000000000000, #292 ) ;
#69 = DIRECTION ( 'NONE',  ( 0.0000000000000000000, -1.000000000000000000, 0.0000000000000000000 ) ) ;
#70 = DESIGN_CONTEXT ( 'detailed design', #151, 'design' ) ;
#71 = DIRECTION ( 'NONE',  ( 0.0000000000000000000, 1.000000000000000000, 0.0000000000000000000 ) ) ;
#72 = AXIS2_PLACEMENT_3D ( 'NONE', #192, #169, #71 ) ;
#73 = FACE_OUTER_BOUND ( 'NONE', #92, .T. ) ;
#74 = AXIS2_PLACEMENT_3D ( 'NONE', #198, #258, #282 ) ;
#75 = APPROVAL_PERSON_ORGANIZATION ( #9, #94, #243 ) ;
#76 = FACE_OUTER_BOUND ( 'NONE', #163, .T. ) ;
#77 = APPROVAL_DATE_TIME ( #287, #164 ) ;
#78 = COORDINATED_UNIVERSAL_TIME_OFFSET ( 1, 0, .AHEAD. ) ;
#79 = ADVANCED_FACE ( 'NONE', ( #139 ), #113, .F. ) ;
#80 = PERSON_AND_ORGANIZATION ( #148, #301 ) ;
#81 = CC_DESIGN_APPROVAL ( #31, ( #129 ) ) ;
#82 = APPLICATION_PROTOCOL_DEFINITION ( 'international standard', 'config_control_design', 1994, #30 ) ;
#83 = CARTESIAN_POINT ( 'NONE',  ( 8.677408145836386093E-15, -0.7500000000000006661, 2.485308470447548324 ) ) ;
#84 = DIRECTION ( 'NONE',  ( -3.491481338843133355E-15, 1.224646799147353454E-16, -1.000000000000000000 ) ) ;
#85 = LOCAL_TIME ( 15, 12, 40.00000000000000000, #78 ) ;
#86 = CC_DESIGN_DATE_AND_TIME_ASSIGNMENT ( #34, #239, ( #277 ) ) ;
#87 = PRODUCT ( '987594', '987594', '', ( #221 ) ) ;
#88 = APPROVAL_ROLE ( '' ) ;
#89 = EDGE_LOOP ( 'NONE', ( #250 ) ) ;
#90 = PLANE ( 'NONE',  #131 ) ;
#91 = AXIS2_PLACEMENT_3D ( 'NONE', #183, #276, #270 ) ;
#92 = EDGE_LOOP ( 'NONE', ( #229 ) ) ;
#93 = ORIENTED_EDGE ( 'NONE', *, *, #182, .F. ) ;
#94 = APPROVAL ( #13, 'UNSPECIFIED' ) ;
#95 = EDGE_CURVE ( 'NONE', #32, #32, #55, .T. ) ;
#96 = DIRECTION ( 'NONE',  ( 4.275831445896958607E-31, 1.000000000000000000, 1.224646799147353700E-16 ) ) ;
#97 = DIRECTION ( 'NONE',  ( 0.0000000000000000000, -1.000000000000000000, 0.0000000000000000000 ) ) ;
#98 = CC_DESIGN_SECURITY_CLASSIFICATION ( #129, ( #200 ) ) ;
#99 = DIRECTION ( 'NONE',  ( 0.0000000000000000000, 1.000000000000000000, 0.0000000000000000000 ) ) ;
#100 = DIRECTION ( 'NONE',  ( 0.0000000000000000000, -1.000000000000000000, 0.0000000000000000000 ) ) ;
#101 = AXIS2_PLACEMENT_3D ( 'NONE', #23, #217, #28 ) ;
#102 = DIRECTION ( 'NONE',  ( 3.491481338843133355E-15, -1.198223107250220118E-16, 1.000000000000000000 ) ) ;
#103 = AXIS2_PLACEMENT_3D ( 'NONE', #264, #224, #177 ) ;
#104 = APPROVAL_ROLE ( '' ) ;
#105 = PERSON_AND_ORGANIZATION_ROLE ( 'design_owner' ) ;
#106 = ADVANCED_BREP_SHAPE_REPRESENTATION ( '987594', ( #159, #253, #103 ), #7 ) ;
#107 = AXIS2_PLACEMENT_3D ( 'NONE', #147, #232, #96 ) ;
#108 = CARTESIAN_POINT ( 'NONE',  ( 5.525909669398909245E-15, -0.3761204674887137500, 1.582683432365089793 ) ) ;
#109 = ORIENTED_EDGE ( 'NONE', *, *, #286, .F. ) ;
#110 = APPROVAL_STATUS ( 'not_yet_approved' ) ;
#111 = VERTEX_POINT ( 'NONE', #33 ) ;
#112 = CALENDAR_DATE ( 2021, 8, 11 ) ;
#113 = PLANE ( 'NONE',  #91 ) ;
#114 = PERSON_AND_ORGANIZATION ( #148, #301 ) ;
#115 = EDGE_LOOP ( 'NONE', ( #93 ) ) ;
#116 = EDGE_CURVE ( 'NONE', #123, #123, #172, .T. ) ;
#117 = ORIENTED_EDGE ( 'NONE', *, *, #134, .T. ) ;
#118 = PLANE ( 'NONE',  #244 ) ;
#119 = AXIS2_PLACEMENT_3D ( 'NONE', #39, #228, #20 ) ;
#120 = EDGE_LOOP ( 'NONE', ( #247 ) ) ;
#121 = EDGE_CURVE ( 'NONE', #180, #180, #47, .T. ) ;
#122 = FACE_OUTER_BOUND ( 'NONE', #173, .T. ) ;
#123 = VERTEX_POINT ( 'NONE', #266 ) ;
#124 = FACE_OUTER_BOUND ( 'NONE', #120, .T. ) ;
#125 = EDGE_LOOP ( 'NONE', ( #42 ) ) ;
#126 = CARTESIAN_POINT ( 'NONE',  ( 4.189777606611757660E-15, -1.301042606982607539E-16, 1.199999999999999512 ) ) ;
#127 = DIRECTION ( 'NONE',  ( -3.491481338843133355E-15, 1.224646799147353454E-16, -1.000000000000000000 ) ) ;
#128 = CALENDAR_DATE ( 2021, 8, 11 ) ;
#129 = SECURITY_CLASSIFICATION ( '', '', #181 ) ;
#130 = CC_DESIGN_PERSON_AND_ORGANIZATION_ASSIGNMENT ( #40, #136, ( #200 ) ) ;
#131 = AXIS2_PLACEMENT_3D ( 'NONE', #62, #84, #248 ) ;
#132 = DATE_AND_TIME ( #128, #245 ) ;
#133 = AXIS2_PLACEMENT_3D ( 'NONE', #168, #4, #100 ) ;
#134 = EDGE_CURVE ( 'NONE', #111, #111, #242, .T. ) ;
#135 = CLOSED_SHELL ( 'NONE', ( #165, #143, #50, #66, #170, #233, #189, #38, #79 ) ) ;
#136 = PERSON_AND_ORGANIZATION_ROLE ( 'design_supplier' ) ;
#137 = FACE_OUTER_BOUND ( 'NONE', #141, .T. ) ;
#138 = CARTESIAN_POINT ( 'NONE',  ( 4.189777606611756871E-15, -2.168404344971008868E-16, 1.199999999999999067 ) ) ;
#139 = FACE_OUTER_BOUND ( 'NONE', #115, .T. ) ;
#140 = CC_DESIGN_APPROVAL ( #164, ( #200 ) ) ;
#141 = EDGE_LOOP ( 'NONE', ( #226 ) ) ;
#142 = DIRECTION ( 'NONE',  ( 3.491481338843133355E-15, -1.198223107250220118E-16, 1.000000000000000000 ) ) ;
#143 = ADVANCED_FACE ( 'NONE', ( #196, #194 ), #11, .T. ) ;
#144 = CIRCLE ( 'NONE', #188, 1.600000000000000089 ) ;
#145 = DIRECTION ( 'NONE',  ( 0.0000000000000000000, -1.000000000000000000, 0.0000000000000000000 ) ) ;
#146 = PRODUCT_RELATED_PRODUCT_CATEGORY ( 'detail', '', ( #87 ) ) ;
#147 = CARTESIAN_POINT ( 'NONE',  ( 0.0000000000000000000, 0.0000000000000000000, 0.0000000000000000000 ) ) ;
#148 = PERSON ( 'UNSPECIFIED', 'UNSPECIFIED', 'UNSPECIFIED', ('UNSPECIFIED'), ('UNSPECIFIED'), ('UNSPECIFIED') ) ;
#149 = DIRECTION ( 'NONE',  ( -4.183573618734778879E-31, -1.000000000000000000, -1.198223107250220364E-16 ) ) ;
#150 = TOROIDAL_SURFACE ( 'NONE', #12, 1.300000000000000266, 1.000000000000000000 ) ;
#151 = APPLICATION_CONTEXT ( 'configuration controlled 3d designs of mechanical parts and assemblies' ) ;
#152 = DIRECTION ( 'NONE',  ( 3.491481338843133355E-15, -1.198223107250220118E-16, 1.000000000000000000 ) ) ;
#153 = APPLICATION_PROTOCOL_DEFINITION ( 'international standard', 'config_control_design', 1994, #151 ) ;
#154 = PERSON_AND_ORGANIZATION ( #148, #301 ) ;
#155 = CC_DESIGN_PERSON_AND_ORGANIZATION_ASSIGNMENT ( #154, #202, ( #277 ) ) ;
#156 = VERTEX_POINT ( 'NONE', #6 ) ;
#157 = APPROVAL_DATE_TIME ( #132, #94 ) ;
#158 = CIRCLE ( 'NONE', #56, 0.3000000000000000999 ) ;
#159 = MANIFOLD_SOLID_BREP ( 'Corps-Déplacer/Copier1[1]', #135 ) ;
#160 = AXIS2_PLACEMENT_3D ( 'NONE', #49, #152, #238 ) ;
#161 = CALENDAR_DATE ( 2021, 8, 11 ) ;
#162 = CARTESIAN_POINT ( 'NONE',  ( -3.206893176761000815E-31, 1.124826709063586741E-32, -9.184907108292241390E-17 ) ) ;
#163 = EDGE_LOOP ( 'NONE', ( #2 ) ) ;
#164 = APPROVAL ( #110, 'UNSPECIFIED' ) ;
#165 = ADVANCED_FACE ( 'NONE', ( #122, #176 ), #280, .T. ) ;
#166 = CARTESIAN_POINT ( 'NONE',  ( 2.455563260450337867E-14, -8.427118332991551518E-16, 7.033012701892211282 ) ) ;
#167 = DIRECTION ( 'NONE',  ( -4.275831445896959482E-31, -1.000000000000000000, -1.224646799147353454E-16 ) ) ;
#168 = CARTESIAN_POINT ( 'NONE',  ( 4.189777606611757660E-15, -1.437867728700263550E-16, 1.199999999999999512 ) ) ;
#169 = DIRECTION ( 'NONE',  ( -3.491481338843133355E-15, 1.224646799147353454E-16, -1.000000000000000000 ) ) ;
#170 = ADVANCED_FACE ( 'NONE', ( #259, #25 ), #22, .F. ) ;
#171 = FACE_OUTER_BOUND ( 'NONE', #208, .T. ) ;
#172 = CIRCLE ( 'NONE', #186, 1.999999999999998668 ) ;
#173 = EDGE_LOOP ( 'NONE', ( #212 ) ) ;
#174 = CIRCLE ( 'NONE', #74, 0.3761204674887135835 ) ;
#175 = CARTESIAN_POINT ( 'NONE',  ( 1.222018468595096801E-13, -4.286263797015737285E-15, 35.00000000000000000 ) ) ;
#176 = FACE_OUTER_BOUND ( 'NONE', #252, .T. ) ;
#177 = DIRECTION ( 'NONE',  ( 1.000000000000000000, 0.0000000000000000000, 0.0000000000000000000 ) ) ;
#178 = EDGE_CURVE ( 'NONE', #240, #240, #231, .T. ) ;
#179 = CALENDAR_DATE ( 2021, 8, 11 ) ;
#180 = VERTEX_POINT ( 'NONE', #83 ) ;
#181 = SECURITY_CLASSIFICATION_LEVEL ( 'unclassified' ) ;
#182 = EDGE_CURVE ( 'NONE', #156, #156, #158, .T. ) ;
#183 = CARTESIAN_POINT ( 'NONE',  ( 4.189777606611757660E-15, -1.301042606982607539E-16, 1.199999999999999512 ) ) ;
#184 = SHAPE_DEFINITION_REPRESENTATION ( #268, #106 ) ;
#185 = EDGE_LOOP ( 'NONE', ( #10 ) ) ;
#186 = AXIS2_PLACEMENT_3D ( 'NONE', #166, #142, #230 ) ;
#187 = DIRECTION ( 'NONE',  ( -3.491481338843133355E-15, 1.224646799147353454E-16, -1.000000000000000000 ) ) ;
#188 = AXIS2_PLACEMENT_3D ( 'NONE', #175, #127, #99 ) ;
#189 = ADVANCED_FACE ( 'NONE', ( #281, #124 ), #262, .T. ) ;
#190 = ORIENTED_EDGE ( 'NONE', *, *, #95, .F. ) ;
#191 = ORIENTED_EDGE ( 'NONE', *, *, #116, .F. ) ;
#192 = CARTESIAN_POINT ( 'NONE',  ( 1.222018468595096801E-13, -4.286263797015737285E-15, 35.00000000000000000 ) ) ;
#193 = EDGE_LOOP ( 'NONE', ( #191 ) ) ;
#194 = FACE_BOUND ( 'NONE', #302, .T. ) ;
#195 = UNCERTAINTY_MEASURE_WITH_UNIT (LENGTH_MEASURE( 1.000000000000000082E-05 ), #52, 'distance_accuracy_value', 'NONE');
#196 = FACE_OUTER_BOUND ( 'NONE', #16, .T. ) ;
#197 = DIRECTION ( 'NONE',  ( -4.275831445896959482E-31, -1.000000000000000000, -1.224646799147353454E-16 ) ) ;
#198 = CARTESIAN_POINT ( 'NONE',  ( 5.525909669398909245E-15, -1.896407860121941503E-16, 1.582683432365089793 ) ) ;
#199 = CIRCLE ( 'NONE', #275, 2.000000000000000000 ) ;
#200 = PRODUCT_DEFINITION_FORMATION_WITH_SPECIFIED_SOURCE ( 'ANY', '', #87, .NOT_KNOWN. ) ;
#201 = COORDINATED_UNIVERSAL_TIME_OFFSET ( 1, 0, .AHEAD. ) ;
#202 = PERSON_AND_ORGANIZATION_ROLE ( 'creator' ) ;
#203 = CLOSED_SHELL ( 'NONE', ( #255, #290, #44 ) ) ;
#204 = PERSON_AND_ORGANIZATION ( #148, #301 ) ;
#205 = VERTEX_POINT ( 'NONE', #108 ) ;
#206 = CC_DESIGN_DATE_AND_TIME_ASSIGNMENT ( #60, #58, ( #129 ) ) ;
#207 = APPROVAL_STATUS ( 'not_yet_approved' ) ;
#208 = EDGE_LOOP ( 'NONE', ( #274 ) ) ;
#209 = APPROVAL_PERSON_ORGANIZATION ( #14, #31, #88 ) ;
#210 = ORIENTED_EDGE ( 'NONE', *, *, #178, .F. ) ;
#211 = CC_DESIGN_PERSON_AND_ORGANIZATION_ASSIGNMENT ( #204, #291, ( #200 ) ) ;
#212 = ORIENTED_EDGE ( 'NONE', *, *, #26, .T. ) ;
#213 = FACE_OUTER_BOUND ( 'NONE', #193, .T. ) ;
#214 = CARTESIAN_POINT ( 'NONE',  ( 1.208052543239724267E-13, -4.237277925049843857E-15, 34.60000000000000853 ) ) ;
#215 = CYLINDRICAL_SURFACE ( 'NONE', #273, 0.7500000000000003331 ) ;
#216 = DIRECTION ( 'NONE',  ( -4.183573618734778004E-31, -1.000000000000000000, -1.198223107250220118E-16 ) ) ;
#217 = DIRECTION ( 'NONE',  ( 3.491481338843133355E-15, -1.198223107250220118E-16, 1.000000000000000000 ) ) ;
#218 = LOCAL_TIME ( 15, 12, 40.00000000000000000, #201 ) ;
#219 = DIRECTION ( 'NONE',  ( 3.491481338843133355E-15, -1.224646799147353454E-16, 1.000000000000000000 ) ) ;
#220 = CARTESIAN_POINT ( 'NONE',  ( -2.510144171240866539E-31, -0.2999999999999999889, -7.189338643501320213E-17 ) ) ;
#221 = MECHANICAL_CONTEXT ( 'NONE', #30, 'mechanical' ) ;
#222 = VERTEX_POINT ( 'NONE', #37 ) ;
#223 = CIRCLE ( 'NONE', #133, 0.3000000000000000999 ) ;
#224 = DIRECTION ( 'NONE',  ( 0.0000000000000000000, 0.0000000000000000000, 1.000000000000000000 ) ) ;
#225 = FACE_BOUND ( 'NONE', #254, .T. ) ;
#226 = ORIENTED_EDGE ( 'NONE', *, *, #237, .F. ) ;
#227 = EDGE_LOOP ( 'NONE', ( #210 ) ) ;
#228 = DIRECTION ( 'NONE',  ( 3.491481338843133355E-15, -1.198223107250220118E-16, 1.000000000000000000 ) ) ;
#229 = ORIENTED_EDGE ( 'NONE', *, *, #257, .F. ) ;
#230 = DIRECTION ( 'NONE',  ( 0.0000000000000000000, -1.000000000000000000, 0.0000000000000000000 ) ) ;
#231 = CIRCLE ( 'NONE', #283, 0.8839745962155624026 ) ;
#232 = DIRECTION ( 'NONE',  ( -3.491481338843133355E-15, 1.224646799147353454E-16, -1.000000000000000000 ) ) ;
#233 = ADVANCED_FACE ( 'NONE', ( #171, #48 ), #215, .T. ) ;
#234 = VERTEX_POINT ( 'NONE', #45 ) ;
#235 = CARTESIAN_POINT ( 'NONE',  ( 4.189777606611757660E-15, -1.437867728700263550E-16, 1.199999999999999512 ) ) ;
#236 = FACE_OUTER_BOUND ( 'NONE', #89, .T. ) ;
#237 = EDGE_CURVE ( 'NONE', #265, #265, #144, .T. ) ;
#238 = DIRECTION ( 'NONE',  ( -4.183573618734778004E-31, -1.000000000000000000, -1.198223107250220118E-16 ) ) ;
#239 = DATE_TIME_ROLE ( 'creation_date' ) ;
#240 = VERTEX_POINT ( 'NONE', #53 ) ;
#241 =( NAMED_UNIT ( * ) PLANE_ANGLE_UNIT ( ) SI_UNIT ( $, .RADIAN. ) );
#242 = CIRCLE ( 'NONE', #35, 0.7500000000000003331 ) ;
#243 = APPROVAL_ROLE ( '' ) ;
#244 = AXIS2_PLACEMENT_3D ( 'NONE', #162, #61, #167 ) ;
#245 = LOCAL_TIME ( 15, 12, 40.00000000000000000, #8 ) ;
#246 = PERSON_AND_ORGANIZATION_ROLE ( 'classification_officer' ) ;
#247 = ORIENTED_EDGE ( 'NONE', *, *, #121, .F. ) ;
#248 = DIRECTION ( 'NONE',  ( 4.275831445896959482E-31, 1.000000000000000000, 1.224646799147353454E-16 ) ) ;
#249 = EDGE_LOOP ( 'NONE', ( #64 ) ) ;
#250 = ORIENTED_EDGE ( 'NONE', *, *, #257, .T. ) ;
#251 = DIRECTION ( 'NONE',  ( 3.491481338843133355E-15, -1.198223107250220118E-16, 1.000000000000000000 ) ) ;
#252 = EDGE_LOOP ( 'NONE', ( #65 ) ) ;
#253 = MANIFOLD_SOLID_BREP ( 'Corps-Déplacer/Copier1[2]', #203 ) ;
#254 = EDGE_LOOP ( 'NONE', ( #59 ) ) ;
#255 = ADVANCED_FACE ( 'NONE', ( #236 ), #29, .T. ) ;
#256 = EDGE_LOOP ( 'NONE', ( #190 ) ) ;
#257 = EDGE_CURVE ( 'NONE', #222, #222, #223, .T. ) ;
#258 = DIRECTION ( 'NONE',  ( 3.491481338843133355E-15, -1.198223107250220118E-16, 1.000000000000000000 ) ) ;
#259 = FACE_OUTER_BOUND ( 'NONE', #293, .T. ) ;
#260 = DIRECTION ( 'NONE',  ( 3.491481338843133355E-15, -1.198223107250220118E-16, 1.000000000000000000 ) ) ;
#261 = AXIS2_PLACEMENT_3D ( 'NONE', #41, #15, #300 ) ;
#262 = CONICAL_SURFACE ( 'NONE', #298, 0.7500000000000003331, 0.3926990816987250832 ) ;
#263 = CYLINDRICAL_SURFACE ( 'NONE', #160, 0.3000000000000000444 ) ;
#264 = CARTESIAN_POINT ( 'NONE',  ( 0.0000000000000000000, 0.0000000000000000000, 0.0000000000000000000 ) ) ;
#265 = VERTEX_POINT ( 'NONE', #54 ) ;
#266 = CARTESIAN_POINT ( 'NONE',  ( 2.455563260450337867E-14, -1.999999999999999556, 7.033012701892211282 ) ) ;
#267 = CC_DESIGN_PERSON_AND_ORGANIZATION_ASSIGNMENT ( #114, #246, ( #129 ) ) ;
#268 = PRODUCT_DEFINITION_SHAPE ( 'NONE', 'NONE',  #277 ) ;
#269 = DATE_AND_TIME ( #161, #68 ) ;
#270 = DIRECTION ( 'NONE',  ( -4.275831445896959482E-31, -1.000000000000000000, -1.224646799147353454E-16 ) ) ;
#271 = DIRECTION ( 'NONE',  ( 0.0000000000000000000, 1.000000000000000000, 0.0000000000000000000 ) ) ;
#272 = AXIS2_PLACEMENT_3D ( 'NONE', #279, #284, #216 ) ;
#273 = AXIS2_PLACEMENT_3D ( 'NONE', #303, #46, #149 ) ;
#274 = ORIENTED_EDGE ( 'NONE', *, *, #121, .T. ) ;
#275 = AXIS2_PLACEMENT_3D ( 'NONE', #214, #187, #271 ) ;
#276 = DIRECTION ( 'NONE',  ( 3.491481338843133355E-15, -1.224646799147353454E-16, 1.000000000000000000 ) ) ;
#277 = PRODUCT_DEFINITION ( 'UNKNOWN', '', #200, #70 ) ;
#278 = FACE_OUTER_BOUND ( 'NONE', #18, .T. ) ;
#279 = CARTESIAN_POINT ( 'NONE',  ( 1.606081415867841343E-14, -6.505213034913026604E-16, 4.599999999999999645 ) ) ;
#280 = CYLINDRICAL_SURFACE ( 'NONE', #107, 1.999999999999997780 ) ;
#281 = FACE_BOUND ( 'NONE', #185, .T. ) ;
#282 = DIRECTION ( 'NONE',  ( 0.0000000000000000000, -1.000000000000000000, 0.0000000000000000000 ) ) ;
#283 = AXIS2_PLACEMENT_3D ( 'NONE', #24, #43, #145 ) ;
#284 = DIRECTION ( 'NONE',  ( 3.491481338843133355E-15, -1.198223107250220118E-16, 1.000000000000000000 ) ) ;
#285 = CC_DESIGN_APPROVAL ( #94, ( #277 ) ) ;
#286 = EDGE_CURVE ( 'NONE', #205, #205, #174, .T. ) ;
#287 = DATE_AND_TIME ( #179, #218 ) ;
#288 = CALENDAR_DATE ( 2021, 8, 11 ) ;
#289 = PERSON_AND_ORGANIZATION ( #148, #301 ) ;
#290 = ADVANCED_FACE ( 'NONE', ( #76, #73 ), #263, .T. ) ;
#291 = PERSON_AND_ORGANIZATION_ROLE ( 'creator' ) ;
#292 = COORDINATED_UNIVERSAL_TIME_OFFSET ( 1, 0, .AHEAD. ) ;
#293 = EDGE_LOOP ( 'NONE', ( #117 ) ) ;
#294 = COORDINATED_UNIVERSAL_TIME_OFFSET ( 1, 0, .AHEAD. ) ;
#295 = ORIENTED_EDGE ( 'NONE', *, *, #26, .F. ) ;
#296 = DIRECTION ( 'NONE',  ( -4.241302519611429035E-31, -1.000000000000000000, -1.198223107250220118E-16 ) ) ;
#297 = CONICAL_SURFACE ( 'NONE', #261, 1.999999999999998668, 0.5235987755983001479 ) ;
#298 = AXIS2_PLACEMENT_3D ( 'NONE', #67, #102, #3 ) ;
#299 = CC_DESIGN_PERSON_AND_ORGANIZATION_ASSIGNMENT ( #289, #105, ( #87 ) ) ;
#300 = DIRECTION ( 'NONE',  ( 0.0000000000000000000, -1.000000000000000000, 0.0000000000000000000 ) ) ;
#301 = ORGANIZATION ( 'UNSPECIFIED', 'UNSPECIFIED', '' ) ;
#302 = EDGE_LOOP ( 'NONE', ( #27 ) ) ;
#303 = CARTESIAN_POINT ( 'NONE',  ( 0.0000000000000000000, 0.0000000000000000000, 0.0000000000000000000 ) ) ;
ENDSEC;
END-ISO-10303-21;
