ISO-10303-21;
HEADER;
FILE_DESCRIPTION (( 'STEP AP203' ),
    '1' );
FILE_NAME ('987593.step',
    '2021-11-08T14:12:39',
    ( '' ),
    ( '' ),
    'SwSTEP 2.0',
    'SolidWorks 2019',
    '' );
FILE_SCHEMA (( 'CONFIG_CONTROL_DESIGN' ));
ENDSEC;

DATA;
#1 = EDGE_LOOP ( 'NONE', ( #63 ) ) ;
#2 = PRODUCT_DEFINITION_SHAPE ( 'NONE', 'NONE',  #199 ) ;
#3 = DIRECTION ( 'NONE',  ( -3.491481338843133355E-15, 1.224646799147353454E-16, -1.000000000000000000 ) ) ;
#4 = FACE_OUTER_BOUND ( 'NONE', #132, .T. ) ;
#5 = AXIS2_PLACEMENT_3D ( 'NONE', #134, #160, #233 ) ;
#6 = ADVANCED_FACE ( 'NONE', ( #51 ), #241, .F. ) ;
#7 = DIRECTION ( 'NONE',  ( 0.0000000000000000000, -1.000000000000000000, 0.0000000000000000000 ) ) ;
#8 = CARTESIAN_POINT ( 'NONE',  ( 1.222018468595096801E-13, -4.286263797015737285E-15, 35.00000000000000000 ) ) ;
#9 = CIRCLE ( 'NONE', #183, 0.2000000000000002054 ) ;
#10 = AXIS2_PLACEMENT_3D ( 'NONE', #195, #218, #77 ) ;
#11 = APPROVAL_STATUS ( 'not_yet_approved' ) ;
#12 = VERTEX_POINT ( 'NONE', #135 ) ;
#13 = EDGE_LOOP ( 'NONE', ( #36 ) ) ;
#14 = ORIENTED_EDGE ( 'NONE', *, *, #240, .T. ) ;
#15 = PERSON_AND_ORGANIZATION ( #226, #123 ) ;
#16 = CC_DESIGN_SECURITY_CLASSIFICATION ( #182, ( #169 ) ) ;
#17 = CARTESIAN_POINT ( 'NONE',  ( 0.0000000000000000000, 0.0000000000000000000, 0.0000000000000000000 ) ) ;
#18 = DIRECTION ( 'NONE',  ( 3.491481338843133355E-15, -1.198223107250220118E-16, 1.000000000000000000 ) ) ;
#19 = PLANE ( 'NONE',  #222 ) ;
#20 = CLOSED_SHELL ( 'NONE', ( #150, #69, #142 ) ) ;
#21 = APPLICATION_CONTEXT ( 'configuration controlled 3d designs of mechanical parts and assemblies' ) ;
#22 = CIRCLE ( 'NONE', #5, 2.000000000000000000 ) ;
#23 = CARTESIAN_POINT ( 'NONE',  ( 2.455563260450337867E-14, -1.999999999999999556, 7.033012701892211282 ) ) ;
#24 = DIRECTION ( 'NONE',  ( 3.491481338843133355E-15, -1.198223107250220118E-16, 1.000000000000000000 ) ) ;
#25 = CARTESIAN_POINT ( 'NONE',  ( -3.206893176761000815E-31, 1.124826709063586741E-32, -9.184907108292241390E-17 ) ) ;
#26 = DIRECTION ( 'NONE',  ( 0.0000000000000000000, -1.000000000000000000, 0.0000000000000000000 ) ) ;
#27 = ADVANCED_FACE ( 'NONE', ( #140, #43 ), #90, .T. ) ;
#28 = CALENDAR_DATE ( 2021, 8, 11 ) ;
#29 = CC_DESIGN_DATE_AND_TIME_ASSIGNMENT ( #224, #288, ( #199 ) ) ;
#30 = PERSON_AND_ORGANIZATION ( #226, #123 ) ;
#31 = ORIENTED_EDGE ( 'NONE', *, *, #95, .F. ) ;
#32 = VERTEX_POINT ( 'NONE', #227 ) ;
#33 = PERSON_AND_ORGANIZATION ( #226, #123 ) ;
#34 = ADVANCED_FACE ( 'NONE', ( #111, #162 ), #193, .T. ) ;
#35 = VERTEX_POINT ( 'NONE', #179 ) ;
#36 = ORIENTED_EDGE ( 'NONE', *, *, #99, .T. ) ;
#37 = PLANE ( 'NONE',  #175 ) ;
#38 = ORIENTED_EDGE ( 'NONE', *, *, #60, .T. ) ;
#39 = EDGE_LOOP ( 'NONE', ( #41 ) ) ;
#40 = CARTESIAN_POINT ( 'NONE',  ( 0.0000000000000000000, 0.0000000000000000000, 0.0000000000000000000 ) ) ;
#41 = ORIENTED_EDGE ( 'NONE', *, *, #104, .F. ) ;
#42 = DESIGN_CONTEXT ( 'detailed design', #124, 'design' ) ;
#43 = FACE_OUTER_BOUND ( 'NONE', #137, .T. ) ;
#44 = EDGE_LOOP ( 'NONE', ( #300 ) ) ;
#45 = LOCAL_TIME ( 15, 12, 39.00000000000000000, #219 ) ;
#46 = DIRECTION ( 'NONE',  ( -4.275831445896959482E-31, -1.000000000000000000, -1.224646799147353454E-16 ) ) ;
#47 = CARTESIAN_POINT ( 'NONE',  ( 1.606081415867841343E-14, -6.505213034913026604E-16, 4.599999999999999645 ) ) ;
#48 = CARTESIAN_POINT ( 'NONE',  ( 2.793185071074504712E-15, 0.0000000000000000000, 0.7999999999999993783 ) ) ;
#49 = ADVANCED_FACE ( 'NONE', ( #114, #186 ), #64, .T. ) ;
#50 = LOCAL_TIME ( 15, 12, 39.00000000000000000, #215 ) ;
#51 = FACE_OUTER_BOUND ( 'NONE', #1, .T. ) ;
#52 = AXIS2_PLACEMENT_3D ( 'NONE', #48, #130, #208 ) ;
#53 = MANIFOLD_SOLID_BREP ( 'Corps-Déplacer/Copier1[1]', #85 ) ;
#54 = AXIS2_PLACEMENT_3D ( 'NONE', #267, #56, #146 ) ;
#55 = CC_DESIGN_PERSON_AND_ORGANIZATION_ASSIGNMENT ( #250, #216, ( #169 ) ) ;
#56 = DIRECTION ( 'NONE',  ( 3.491481338843133355E-15, -1.198223107250220118E-16, 1.000000000000000000 ) ) ;
#57 = PERSON_AND_ORGANIZATION ( #226, #123 ) ;
#58 = CYLINDRICAL_SURFACE ( 'NONE', #141, 0.2000000000000000944 ) ;
#59 = APPROVAL_ROLE ( '' ) ;
#60 = EDGE_CURVE ( 'NONE', #270, #270, #239, .T. ) ;
#61 = CARTESIAN_POINT ( 'NONE',  ( 8.123733770399894974E-15, -2.787941442662094581E-16, 2.326729826684856395 ) ) ;
#62 = AXIS2_PLACEMENT_3D ( 'NONE', #261, #211, #280 ) ;
#63 = ORIENTED_EDGE ( 'NONE', *, *, #156, .F. ) ;
#64 = CONICAL_SURFACE ( 'NONE', #115, 1.600000000000000089, 0.7853981633974512766 ) ;
#65 =( LENGTH_UNIT ( ) NAMED_UNIT ( * ) SI_UNIT ( .MILLI., .METRE. ) );
#66 = PERSON_AND_ORGANIZATION ( #226, #123 ) ;
#67 = DIRECTION ( 'NONE',  ( 3.491481338843133355E-15, -1.198223107250220118E-16, 1.000000000000000000 ) ) ;
#68 = ORIENTED_EDGE ( 'NONE', *, *, #99, .F. ) ;
#69 = ADVANCED_FACE ( 'NONE', ( #221, #291 ), #58, .T. ) ;
#70 = CARTESIAN_POINT ( 'NONE',  ( 1.222018468595096801E-13, -4.286263797015737285E-15, 35.00000000000000000 ) ) ;
#71 = CONICAL_SURFACE ( 'NONE', #242, 0.7500000000000003331, 0.3926990816987253607 ) ;
#72 = DIRECTION ( 'NONE',  ( -4.275831445896959482E-31, -1.000000000000000000, -1.224646799147353454E-16 ) ) ;
#73 = ADVANCED_FACE ( 'NONE', ( #201, #269 ), #71, .T. ) ;
#74 = AXIS2_PLACEMENT_3D ( 'NONE', #295, #133, #273 ) ;
#75 = FACE_OUTER_BOUND ( 'NONE', #213, .T. ) ;
#76 = DATE_AND_TIME ( #204, #96 ) ;
#77 = DIRECTION ( 'NONE',  ( 0.0000000000000000000, -1.000000000000000000, 0.0000000000000000000 ) ) ;
#78 = SECURITY_CLASSIFICATION_LEVEL ( 'unclassified' ) ;
#79 = DIRECTION ( 'NONE',  ( 0.0000000000000000000, -1.000000000000000000, 0.0000000000000000000 ) ) ;
#80 = CIRCLE ( 'NONE', #266, 0.7500000000000003331 ) ;
#81 = CC_DESIGN_DATE_AND_TIME_ASSIGNMENT ( #153, #102, ( #182 ) ) ;
#82 = CARTESIAN_POINT ( 'NONE',  ( 4.129317133861657480E-15, -0.2761204674887138832, 1.182683432365090326 ) ) ;
#83 = CALENDAR_DATE ( 2021, 8, 11 ) ;
#84 = ORIENTED_EDGE ( 'NONE', *, *, #176, .T. ) ;
#85 = CLOSED_SHELL ( 'NONE', ( #220, #49, #290, #34, #180, #27, #73, #197, #6 ) ) ;
#86 = ORIENTED_EDGE ( 'NONE', *, *, #60, .F. ) ;
#87 = CC_DESIGN_PERSON_AND_ORGANIZATION_ASSIGNMENT ( #15, #253, ( #199 ) ) ;
#88 = FACE_OUTER_BOUND ( 'NONE', #228, .T. ) ;
#89 = TOROIDAL_SURFACE ( 'NONE', #117, 1.750000000000000888, 1.000000000000000444 ) ;
#90 = CYLINDRICAL_SURFACE ( 'NONE', #106, 0.7500000000000003331 ) ;
#91 = DIRECTION ( 'NONE',  ( 0.0000000000000000000, 1.000000000000000000, 0.0000000000000000000 ) ) ;
#92 = DIRECTION ( 'NONE',  ( 0.0000000000000000000, -1.000000000000000000, 0.0000000000000000000 ) ) ;
#93 = FACE_OUTER_BOUND ( 'NONE', #157, .T. ) ;
#94 = AXIS2_PLACEMENT_3D ( 'NONE', #101, #244, #172 ) ;
#95 = EDGE_CURVE ( 'NONE', #118, #118, #166, .T. ) ;
#96 = LOCAL_TIME ( 15, 12, 39.00000000000000000, #100 ) ;
#97 = PLANE ( 'NONE',  #143 ) ;
#98 = DIRECTION ( 'NONE',  ( -3.491481338843133355E-15, 1.224646799147353454E-16, -1.000000000000000000 ) ) ;
#99 = EDGE_CURVE ( 'NONE', #12, #12, #283, .T. ) ;
#100 = COORDINATED_UNIVERSAL_TIME_OFFSET ( 1, 0, .AHEAD. ) ;
#101 = CARTESIAN_POINT ( 'NONE',  ( -8.367147237469555131E-32, 2.871477229496744522E-33, -2.396446214500439866E-17 ) ) ;
#102 = DATE_TIME_ROLE ( 'classification_date' ) ;
#103 = VERTEX_POINT ( 'NONE', #184 ) ;
#104 = EDGE_CURVE ( 'NONE', #210, #210, #144, .T. ) ;
#105 = EDGE_LOOP ( 'NONE', ( #254 ) ) ;
#106 = AXIS2_PLACEMENT_3D ( 'NONE', #17, #18, #238 ) ;
#107 = CC_DESIGN_PERSON_AND_ORGANIZATION_ASSIGNMENT ( #66, #232, ( #223 ) ) ;
#108 = APPROVAL_ROLE ( '' ) ;
#109 = DIRECTION ( 'NONE',  ( 0.0000000000000000000, -1.000000000000000000, 0.0000000000000000000 ) ) ;
#110 = APPROVAL_PERSON_ORGANIZATION ( #33, #258, #108 ) ;
#111 = FACE_BOUND ( 'NONE', #105, .T. ) ;
#112 = CARTESIAN_POINT ( 'NONE',  ( 2.793185071074505895E-15, -9.585784858001756998E-17, 0.7999999999999997113 ) ) ;
#113 = DIRECTION ( 'NONE',  ( -4.183573618734778004E-31, -1.000000000000000000, -1.198223107250220118E-16 ) ) ;
#114 = FACE_OUTER_BOUND ( 'NONE', #252, .T. ) ;
#115 = AXIS2_PLACEMENT_3D ( 'NONE', #70, #3, #91 ) ;
#116 = CARTESIAN_POINT ( 'NONE',  ( 2.793185071074505107E-15, -1.734723475976809806E-16, 0.7999999999999994893 ) ) ;
#117 = AXIS2_PLACEMENT_3D ( 'NONE', #47, #163, #113 ) ;
#118 = VERTEX_POINT ( 'NONE', #287 ) ;
#119 = PERSON_AND_ORGANIZATION_ROLE ( 'creator' ) ;
#120 = EDGE_CURVE ( 'NONE', #32, #32, #189, .T. ) ;
#121 = PERSON_AND_ORGANIZATION_ROLE ( 'classification_officer' ) ;
#122 = APPROVAL_ROLE ( '' ) ;
#123 = ORGANIZATION ( 'UNSPECIFIED', 'UNSPECIFIED', '' ) ;
#124 = APPLICATION_CONTEXT ( 'configuration controlled 3d designs of mechanical parts and assemblies' ) ;
#125 = TOROIDAL_SURFACE ( 'NONE', #52, 1.200000000000000178, 1.000000000000000000 ) ;
#126 =( NAMED_UNIT ( * ) SI_UNIT ( $, .STERADIAN. ) SOLID_ANGLE_UNIT ( ) );
#127 = EDGE_LOOP ( 'NONE', ( #272 ) ) ;
#128 = CIRCLE ( 'NONE', #158, 0.2761204674887137167 ) ;
#129 =( NAMED_UNIT ( * ) PLANE_ANGLE_UNIT ( ) SI_UNIT ( $, .RADIAN. ) );
#130 = DIRECTION ( 'NONE',  ( 3.491481338843133355E-15, -1.198223107250220118E-16, 1.000000000000000000 ) ) ;
#131 = EDGE_CURVE ( 'NONE', #298, #298, #198, .T. ) ;
#132 = EDGE_LOOP ( 'NONE', ( #187 ) ) ;
#133 = DIRECTION ( 'NONE',  ( 0.0000000000000000000, 0.0000000000000000000, 1.000000000000000000 ) ) ;
#134 = CARTESIAN_POINT ( 'NONE',  ( 1.208052543239724267E-13, -4.237277925049843857E-15, 34.60000000000000853 ) ) ;
#135 = CARTESIAN_POINT ( 'NONE',  ( -1.673429447493911245E-31, -0.1999999999999999833, -4.792892429000879731E-17 ) ) ;
#136 = CC_DESIGN_APPROVAL ( #284, ( #169 ) ) ;
#137 = EDGE_LOOP ( 'NONE', ( #31 ) ) ;
#138 = DIRECTION ( 'NONE',  ( 3.491481338843133355E-15, -1.224646799147353454E-16, 1.000000000000000000 ) ) ;
#139 = CC_DESIGN_PERSON_AND_ORGANIZATION_ASSIGNMENT ( #30, #121, ( #182 ) ) ;
#140 = FACE_OUTER_BOUND ( 'NONE', #297, .T. ) ;
#141 = AXIS2_PLACEMENT_3D ( 'NONE', #171, #217, #148 ) ;
#142 = ADVANCED_FACE ( 'NONE', ( #174 ), #97, .F. ) ;
#143 = AXIS2_PLACEMENT_3D ( 'NONE', #25, #194, #286 ) ;
#144 = CIRCLE ( 'NONE', #10, 0.2000000000000002054 ) ;
#145 = DIRECTION ( 'NONE',  ( 3.491481338843133355E-15, -1.198223107250220118E-16, 1.000000000000000000 ) ) ;
#146 = DIRECTION ( 'NONE',  ( 0.0000000000000000000, -1.000000000000000000, 0.0000000000000000000 ) ) ;
#147 = SHAPE_DEFINITION_REPRESENTATION ( #2, #294 ) ;
#148 = DIRECTION ( 'NONE',  ( -4.183573618734778004E-31, -1.000000000000000000, -1.198223107250220118E-16 ) ) ;
#149 = DATE_AND_TIME ( #249, #45 ) ;
#150 = ADVANCED_FACE ( 'NONE', ( #75 ), #19, .T. ) ;
#151 = APPROVAL_DATE_TIME ( #149, #284 ) ;
#152 = CC_DESIGN_APPROVAL ( #229, ( #182 ) ) ;
#153 = DATE_AND_TIME ( #271, #50 ) ;
#154 = APPLICATION_PROTOCOL_DEFINITION ( 'international standard', 'config_control_design', 1994, #21 ) ;
#155 = APPROVAL_DATE_TIME ( #159, #258 ) ;
#156 = EDGE_CURVE ( 'NONE', #103, #103, #9, .T. ) ;
#157 = EDGE_LOOP ( 'NONE', ( #251 ) ) ;
#158 = AXIS2_PLACEMENT_3D ( 'NONE', #214, #67, #109 ) ;
#159 = DATE_AND_TIME ( #83, #248 ) ;
#160 = DIRECTION ( 'NONE',  ( -3.491481338843133355E-15, 1.224646799147353454E-16, -1.000000000000000000 ) ) ;
#161 = EDGE_LOOP ( 'NONE', ( #303 ) ) ;
#162 = FACE_OUTER_BOUND ( 'NONE', #279, .T. ) ;
#163 = DIRECTION ( 'NONE',  ( 3.491481338843133355E-15, -1.198223107250220118E-16, 1.000000000000000000 ) ) ;
#164 = PRODUCT_RELATED_PRODUCT_CATEGORY ( 'detail', '', ( #223 ) ) ;
#165 = DIRECTION ( 'NONE',  ( 3.491481338843133355E-15, -1.198223107250220118E-16, 1.000000000000000000 ) ) ;
#166 = CIRCLE ( 'NONE', #278, 0.7500000000000003331 ) ;
#167 = DIRECTION ( 'NONE',  ( -3.491481338843133355E-15, 1.224646799147353454E-16, -1.000000000000000000 ) ) ;
#168 = EDGE_LOOP ( 'NONE', ( #14 ) ) ;
#169 = PRODUCT_DEFINITION_FORMATION_WITH_SPECIFIED_SOURCE ( 'ANY', '', #223, .NOT_KNOWN. ) ;
#170 = DIRECTION ( 'NONE',  ( 4.275831445896958607E-31, 1.000000000000000000, 1.224646799147353700E-16 ) ) ;
#171 = CARTESIAN_POINT ( 'NONE',  ( 0.0000000000000000000, 0.0000000000000000000, 0.0000000000000000000 ) ) ;
#172 = DIRECTION ( 'NONE',  ( -4.183573618734778879E-31, -1.000000000000000000, -1.198223107250220118E-16 ) ) ;
#173 = PERSON_AND_ORGANIZATION ( #226, #123 ) ;
#174 = FACE_OUTER_BOUND ( 'NONE', #236, .T. ) ;
#175 = AXIS2_PLACEMENT_3D ( 'NONE', #225, #177, #202 ) ;
#176 = EDGE_CURVE ( 'NONE', #35, #35, #80, .T. ) ;
#177 = DIRECTION ( 'NONE',  ( -3.491481338843133355E-15, 1.224646799147353454E-16, -1.000000000000000000 ) ) ;
#178 = APPROVAL_PERSON_ORGANIZATION ( #173, #284, #122 ) ;
#179 = CARTESIAN_POINT ( 'NONE',  ( 8.123733770399894974E-15, -0.7500000000000006661, 2.326729826684856395 ) ) ;
#180 = ADVANCED_FACE ( 'NONE', ( #281, #4 ), #89, .F. ) ;
#181 = ORIENTED_EDGE ( 'NONE', *, *, #131, .T. ) ;
#182 = SECURITY_CLASSIFICATION ( '', '', #78 ) ;
#183 = AXIS2_PLACEMENT_3D ( 'NONE', #112, #191, #92 ) ;
#184 = CARTESIAN_POINT ( 'NONE',  ( 2.793185071074505895E-15, -0.2000000000000003164, 0.7999999999999997113 ) ) ;
#185 = ORIENTED_EDGE ( 'NONE', *, *, #275, .F. ) ;
#186 = FACE_BOUND ( 'NONE', #299, .T. ) ;
#187 = ORIENTED_EDGE ( 'NONE', *, *, #120, .F. ) ;
#188 = UNCERTAINTY_MEASURE_WITH_UNIT (LENGTH_MEASURE( 1.000000000000000082E-05 ), #65, 'distance_accuracy_value', 'NONE');
#189 = CIRCLE ( 'NONE', #54, 0.8839745962155624026 ) ;
#190 = DIRECTION ( 'NONE',  ( 0.0000000000000000000, -1.000000000000000000, 0.0000000000000000000 ) ) ;
#191 = DIRECTION ( 'NONE',  ( 3.491481338843133355E-15, -1.198223107250220118E-16, 1.000000000000000000 ) ) ;
#192 = FACE_OUTER_BOUND ( 'NONE', #127, .T. ) ;
#193 = CONICAL_SURFACE ( 'NONE', #62, 1.999999999999998668, 0.5235987755983001479 ) ;
#194 = DIRECTION ( 'NONE',  ( 3.491481338843133355E-15, -1.224646799147353454E-16, 1.000000000000000000 ) ) ;
#195 = CARTESIAN_POINT ( 'NONE',  ( 2.793185071074505895E-15, -9.585784858001756998E-17, 0.7999999999999997113 ) ) ;
#196 = DIRECTION ( 'NONE',  ( 3.491481338843133355E-15, -1.198223107250220118E-16, 1.000000000000000000 ) ) ;
#197 = ADVANCED_FACE ( 'NONE', ( #192, #234 ), #125, .F. ) ;
#198 = CIRCLE ( 'NONE', #276, 1.600000000000000089 ) ;
#199 = PRODUCT_DEFINITION ( 'UNKNOWN', '', #169, #42 ) ;
#200 = PERSON_AND_ORGANIZATION ( #226, #123 ) ;
#201 = FACE_BOUND ( 'NONE', #168, .T. ) ;
#202 = DIRECTION ( 'NONE',  ( 4.275831445896959482E-31, 1.000000000000000000, 1.224646799147353454E-16 ) ) ;
#203 = AXIS2_PLACEMENT_3D ( 'NONE', #247, #196, #79 ) ;
#204 = CALENDAR_DATE ( 2021, 8, 11 ) ;
#205 = APPLICATION_PROTOCOL_DEFINITION ( 'international standard', 'config_control_design', 1994, #124 ) ;
#206 = ORIENTED_EDGE ( 'NONE', *, *, #104, .T. ) ;
#207 = COORDINATED_UNIVERSAL_TIME_OFFSET ( 1, 0, .AHEAD. ) ;
#208 = DIRECTION ( 'NONE',  ( -4.243926560560367759E-31, -1.000000000000000000, -1.198223107250220118E-16 ) ) ;
#209 = CARTESIAN_POINT ( 'NONE',  ( 1.208052543239724267E-13, 1.999999999999995781, 34.60000000000000853 ) ) ;
#210 = VERTEX_POINT ( 'NONE', #263 ) ;
#211 = DIRECTION ( 'NONE',  ( 3.491481338843133355E-15, -1.198223107250220118E-16, 1.000000000000000000 ) ) ;
#212 = CARTESIAN_POINT ( 'NONE',  ( 8.123733770399894974E-15, -2.787941442662094581E-16, 2.326729826684856395 ) ) ;
#213 = EDGE_LOOP ( 'NONE', ( #206 ) ) ;
#214 = CARTESIAN_POINT ( 'NONE',  ( 4.129317133861657480E-15, -1.417118617221853899E-16, 1.182683432365090326 ) ) ;
#215 = COORDINATED_UNIVERSAL_TIME_OFFSET ( 1, 0, .AHEAD. ) ;
#216 = PERSON_AND_ORGANIZATION_ROLE ( 'design_supplier' ) ;
#217 = DIRECTION ( 'NONE',  ( 3.491481338843133355E-15, -1.198223107250220118E-16, 1.000000000000000000 ) ) ;
#218 = DIRECTION ( 'NONE',  ( 3.491481338843133355E-15, -1.198223107250220118E-16, 1.000000000000000000 ) ) ;
#219 = COORDINATED_UNIVERSAL_TIME_OFFSET ( 1, 0, .AHEAD. ) ;
#220 = ADVANCED_FACE ( 'NONE', ( #93, #88 ), #259, .T. ) ;
#221 = FACE_OUTER_BOUND ( 'NONE', #13, .T. ) ;
#222 = AXIS2_PLACEMENT_3D ( 'NONE', #116, #264, #72 ) ;
#223 = PRODUCT ( '987593', '987593', '', ( #274 ) ) ;
#224 = DATE_AND_TIME ( #28, #301 ) ;
#225 = CARTESIAN_POINT ( 'NONE',  ( 1.222018468595096801E-13, 1.199807826129480202E-32, 35.00000000000000000 ) ) ;
#226 = PERSON ( 'UNSPECIFIED', 'UNSPECIFIED', 'UNSPECIFIED', ('UNSPECIFIED'), ('UNSPECIFIED'), ('UNSPECIFIED') ) ;
#227 = CARTESIAN_POINT ( 'NONE',  ( 1.780655482809998327E-14, -0.8839745962155630687, 5.100000000000001421 ) ) ;
#228 = EDGE_LOOP ( 'NONE', ( #38 ) ) ;
#229 = APPROVAL ( #268, 'UNSPECIFIED' ) ;
#230 = VERTEX_POINT ( 'NONE', #209 ) ;
#231 = EDGE_LOOP ( 'NONE', ( #282 ) ) ;
#232 = PERSON_AND_ORGANIZATION_ROLE ( 'design_owner' ) ;
#233 = DIRECTION ( 'NONE',  ( 0.0000000000000000000, 1.000000000000000000, 0.0000000000000000000 ) ) ;
#234 = FACE_OUTER_BOUND ( 'NONE', #161, .T. ) ;
#235 = CC_DESIGN_PERSON_AND_ORGANIZATION_ASSIGNMENT ( #57, #119, ( #169 ) ) ;
#236 = EDGE_LOOP ( 'NONE', ( #68 ) ) ;
#237 = ORIENTED_EDGE ( 'NONE', *, *, #176, .F. ) ;
#238 = DIRECTION ( 'NONE',  ( -4.183573618734778879E-31, -1.000000000000000000, -1.198223107250220364E-16 ) ) ;
#239 = CIRCLE ( 'NONE', #203, 1.999999999999998668 ) ;
#240 = EDGE_CURVE ( 'NONE', #296, #296, #128, .T. ) ;
#241 = PLANE ( 'NONE',  #246 ) ;
#242 = AXIS2_PLACEMENT_3D ( 'NONE', #61, #145, #7 ) ;
#243 = CARTESIAN_POINT ( 'NONE',  ( 1.606081415867841343E-14, -5.511826293351012246E-16, 4.599999999999999645 ) ) ;
#244 = DIRECTION ( 'NONE',  ( 3.491481338843133355E-15, -1.198223107250220118E-16, 1.000000000000000000 ) ) ;
#245 = APPROVAL_STATUS ( 'not_yet_approved' ) ;
#246 = AXIS2_PLACEMENT_3D ( 'NONE', #262, #138, #46 ) ;
#247 = CARTESIAN_POINT ( 'NONE',  ( 2.455563260450337867E-14, -8.427118332991551518E-16, 7.033012701892211282 ) ) ;
#248 = LOCAL_TIME ( 15, 12, 39.00000000000000000, #207 ) ;
#249 = CALENDAR_DATE ( 2021, 8, 11 ) ;
#250 = PERSON_AND_ORGANIZATION ( #226, #123 ) ;
#251 = ORIENTED_EDGE ( 'NONE', *, *, #275, .T. ) ;
#252 = EDGE_LOOP ( 'NONE', ( #185 ) ) ;
#253 = PERSON_AND_ORGANIZATION_ROLE ( 'creator' ) ;
#254 = ORIENTED_EDGE ( 'NONE', *, *, #120, .T. ) ;
#255 =( GEOMETRIC_REPRESENTATION_CONTEXT ( 3 ) GLOBAL_UNCERTAINTY_ASSIGNED_CONTEXT ( ( #188 ) ) GLOBAL_UNIT_ASSIGNED_CONTEXT ( ( #65, #129, #126 ) ) REPRESENTATION_CONTEXT ( 'NONE', 'WORKASPACE' ) );
#256 = CARTESIAN_POINT ( 'NONE',  ( 1.222018468595096801E-13, 1.599999999999995648, 35.00000000000000000 ) ) ;
#257 = FACE_OUTER_BOUND ( 'NONE', #44, .T. ) ;
#258 = APPROVAL ( #11, 'UNSPECIFIED' ) ;
#259 = CYLINDRICAL_SURFACE ( 'NONE', #292, 1.999999999999997780 ) ;
#260 = MANIFOLD_SOLID_BREP ( 'Corps-Déplacer/Copier1[2]', #20 ) ;
#261 = CARTESIAN_POINT ( 'NONE',  ( 2.455563260450337867E-14, -8.427118332991551518E-16, 7.033012701892211282 ) ) ;
#262 = CARTESIAN_POINT ( 'NONE',  ( 2.793185071074505107E-15, -1.734723475976809806E-16, 0.7999999999999994893 ) ) ;
#263 = CARTESIAN_POINT ( 'NONE',  ( 2.793185071074505895E-15, -0.2000000000000003164, 0.7999999999999997113 ) ) ;
#264 = DIRECTION ( 'NONE',  ( 3.491481338843133355E-15, -1.224646799147353454E-16, 1.000000000000000000 ) ) ;
#265 = CC_DESIGN_APPROVAL ( #258, ( #199 ) ) ;
#266 = AXIS2_PLACEMENT_3D ( 'NONE', #212, #165, #190 ) ;
#267 = CARTESIAN_POINT ( 'NONE',  ( 1.780655482809998327E-14, -6.110937846976124030E-16, 5.100000000000001421 ) ) ;
#268 = APPROVAL_STATUS ( 'not_yet_approved' ) ;
#269 = FACE_OUTER_BOUND ( 'NONE', #277, .T. ) ;
#270 = VERTEX_POINT ( 'NONE', #23 ) ;
#271 = CALENDAR_DATE ( 2021, 8, 11 ) ;
#272 = ORIENTED_EDGE ( 'NONE', *, *, #156, .T. ) ;
#273 = DIRECTION ( 'NONE',  ( 1.000000000000000000, 0.0000000000000000000, 0.0000000000000000000 ) ) ;
#274 = MECHANICAL_CONTEXT ( 'NONE', #21, 'mechanical' ) ;
#275 = EDGE_CURVE ( 'NONE', #230, #230, #22, .T. ) ;
#276 = AXIS2_PLACEMENT_3D ( 'NONE', #8, #98, #289 ) ;
#277 = EDGE_LOOP ( 'NONE', ( #237 ) ) ;
#278 = AXIS2_PLACEMENT_3D ( 'NONE', #243, #24, #26 ) ;
#279 = EDGE_LOOP ( 'NONE', ( #86 ) ) ;
#280 = DIRECTION ( 'NONE',  ( 0.0000000000000000000, -1.000000000000000000, 0.0000000000000000000 ) ) ;
#281 = FACE_OUTER_BOUND ( 'NONE', #231, .T. ) ;
#282 = ORIENTED_EDGE ( 'NONE', *, *, #95, .T. ) ;
#283 = CIRCLE ( 'NONE', #94, 0.1999999999999999833 ) ;
#284 = APPROVAL ( #245, 'UNSPECIFIED' ) ;
#285 = APPROVAL_PERSON_ORGANIZATION ( #200, #229, #59 ) ;
#286 = DIRECTION ( 'NONE',  ( -4.275831445896959482E-31, -1.000000000000000000, -1.224646799147353454E-16 ) ) ;
#287 = CARTESIAN_POINT ( 'NONE',  ( 1.606081415867841343E-14, -0.7500000000000008882, 4.599999999999999645 ) ) ;
#288 = DATE_TIME_ROLE ( 'creation_date' ) ;
#289 = DIRECTION ( 'NONE',  ( 0.0000000000000000000, 1.000000000000000000, 0.0000000000000000000 ) ) ;
#290 = ADVANCED_FACE ( 'NONE', ( #257 ), #37, .F. ) ;
#291 = FACE_OUTER_BOUND ( 'NONE', #39, .T. ) ;
#292 = AXIS2_PLACEMENT_3D ( 'NONE', #40, #167, #170 ) ;
#293 = APPROVAL_DATE_TIME ( #76, #229 ) ;
#294 = ADVANCED_BREP_SHAPE_REPRESENTATION ( '987593', ( #53, #260, #74 ), #255 ) ;
#295 = CARTESIAN_POINT ( 'NONE',  ( 0.0000000000000000000, 0.0000000000000000000, 0.0000000000000000000 ) ) ;
#296 = VERTEX_POINT ( 'NONE', #82 ) ;
#297 = EDGE_LOOP ( 'NONE', ( #84 ) ) ;
#298 = VERTEX_POINT ( 'NONE', #256 ) ;
#299 = EDGE_LOOP ( 'NONE', ( #181 ) ) ;
#300 = ORIENTED_EDGE ( 'NONE', *, *, #131, .F. ) ;
#301 = LOCAL_TIME ( 15, 12, 39.00000000000000000, #302 ) ;
#302 = COORDINATED_UNIVERSAL_TIME_OFFSET ( 1, 0, .AHEAD. ) ;
#303 = ORIENTED_EDGE ( 'NONE', *, *, #240, .F. ) ;
ENDSEC;
END-ISO-10303-21;
